  0
SECTION
  2
HEADER
  9
$ACADVER
  1
AC1015
  9
$ACADMAINTVER
 70
     6
  9
$DWGCODEPAGE
  3
ANSI_1254
  9
$INSBASE
 10
0.0
 20
0.0
 30
0.0
  9
$EXTMIN
 10
0.0
 20
0.0
 30
0.0
  9
$EXTMAX
 10
279.4
 20
215.9
 30
0.0
  9
$LIMMIN
 10
0.0
 20
0.0
  9
$LIMMAX
 10
279.4
 20
215.9
  9
$ORTHOMODE
 70
     0
  9
$REGENMODE
 70
     1
  9
$FILLMODE
 70
     1
  9
$QTEXTMODE
 70
     0
  9
$MIRRTEXT
 70
     1
  9
$LTSCALE
 40
1.0
  9
$ATTMODE
 70
     1
  9
$TEXTSIZE
 40
3.5
  9
$TRACEWID
 40
1.0
  9
$TEXTSTYLE
  7
Standard
  9
$CLAYER
  8
0
  9
$CELTYPE
  6
ByLayer
  9
$CECOLOR
 62
   256
  9
$CELTSCALE
 40
1.0
  9
$DISPSILH
 70
     0
  9
$DIMSCALE
 40
1.0
  9
$DIMASZ
 40
3.5
  9
$DIMEXO
 40
1.0
  9
$DIMDLI
 40
3.75
  9
$DIMRND
 40
0.0
  9
$DIMDLE
 40
0.0
  9
$DIMEXE
 40
1.0
  9
$DIMTP
 40
0.0
  9
$DIMTM
 40
0.0
  9
$DIMTXT
 40
3.5
  9
$DIMCEN
 40
2.5
  9
$DIMTSZ
 40
0.0
  9
$DIMTOL
 70
     0
  9
$DIMLIM
 70
     0
  9
$DIMTIH
 70
     1
  9
$DIMTOH
 70
     1
  9
$DIMSE1
 70
     0
  9
$DIMSE2
 70
     0
  9
$DIMTAD
 70
     1
  9
$DIMZIN
 70
     0
  9
$DIMBLK
  1

  9
$DIMASO
 70
     1
  9
$DIMSHO
 70
     1
  9
$DIMPOST
  1

  9
$DIMAPOST
  1

  9
$DIMALT
 70
     0
  9
$DIMALTD
 70
     3
  9
$DIMALTF
 40
0.0393700787
  9
$DIMLFAC
 40
1.0
  9
$DIMTOFL
 70
     1
  9
$DIMTVP
 40
0.0
  9
$DIMTIX
 70
     0
  9
$DIMSOXD
 70
     0
  9
$DIMSAH
 70
     0
  9
$DIMBLK1
  1

  9
$DIMBLK2
  1

  9
$DIMSTYLE
  2
ISO-25
  9
$DIMCLRD
 70
     0
  9
$DIMCLRE
 70
     0
  9
$DIMCLRT
 70
     0
  9
$DIMTFAC
 40
1.0
  9
$DIMGAP
 40
1.524
  9
$DIMJUST
 70
     0
  9
$DIMSD1
 70
     0
  9
$DIMSD2
 70
     0
  9
$DIMTOLJ
 70
     0
  9
$DIMTZIN
 70
     0
  9
$DIMALTZ
 70
     0
  9
$DIMALTTZ
 70
     0
  9
$DIMUPT
 70
     0
  9
$DIMDEC
 70
     2
  9
$DIMTDEC
 70
     2
  9
$DIMALTU
 70
     2
  9
$DIMALTTD
 70
     3
  9
$DIMTXSTY
  7
Standard
  9
$DIMAUNIT
 70
     0
  9
$DIMADEC
 70
     2
  9
$DIMALTRND
 40
0.0
  9
$DIMAZIN
 70
     0
  9
$DIMDSEP
 70
    44
  9
$DIMATFIT
 70
     3
  9
$DIMFRAC
 70
     0
  9
$DIMLDRBLK
  1

  9
$DIMLUNIT
 70
     2
  9
$DIMLWD
 70
    -2
  9
$DIMLWE
 70
    -2
  9
$DIMTMOVE
 70
     0
  9
$LUNITS
 70
     2
  9
$LUPREC
 70
     2
  9
$SKETCHINC
 40
1.0
  9
$FILLETRAD
 40
10.0
  9
$AUNITS
 70
     0
  9
$AUPREC
 70
     2
  9
$MENU
  1
.
  9
$ELEVATION
 40
0.0
  9
$PELEVATION
 40
0.0
  9
$THICKNESS
 40
0.0
  9
$LIMCHECK
 70
     0
  9
$CHAMFERA
 40
0.0
  9
$CHAMFERB
 40
0.0
  9
$CHAMFERC
 40
0.0
  9
$CHAMFERD
 40
0.0
  9
$SKPOLY
 70
     0
  9
$TDCREATE
 40
2459741.604565868
  9
$TDUCREATE
 40
2459741.479565868
  9
$TDUPDATE
 40
2459741.604566053
  9
$TDUUPDATE
 40
2459741.479566053
  9
$TDINDWG
 40
0.0000000116
  9
$TDUSRTIMER
 40
0.0000000116
  9
$USRTIMER
 70
     1
  9
$ANGBASE
 50
0.0
  9
$ANGDIR
 70
     0
  9
$PDMODE
 70
     0
  9
$PDSIZE
 40
-1.0
  9
$PLINEWID
 40
0.0
  9
$SPLFRAME
 70
     0
  9
$SPLINETYPE
 70
     6
  9
$SPLINESEGS
 70
     8
  9
$HANDSEED
  5
121
  9
$SURFTAB1
 70
     6
  9
$SURFTAB2
 70
     6
  9
$SURFTYPE
 70
     6
  9
$SURFU
 70
     6
  9
$SURFV
 70
     6
  9
$UCSBASE
  2

  9
$UCSNAME
  2

  9
$UCSORG
 10
0.0
 20
0.0
 30
0.0
  9
$UCSXDIR
 10
1.0
 20
0.0
 30
0.0
  9
$UCSYDIR
 10
0.0
 20
1.0
 30
0.0
  9
$UCSORTHOREF
  2

  9
$UCSORTHOVIEW
 70
     0
  9
$UCSORGTOP
 10
0.0
 20
0.0
 30
0.0
  9
$UCSORGBOTTOM
 10
0.0
 20
0.0
 30
0.0
  9
$UCSORGLEFT
 10
0.0
 20
0.0
 30
0.0
  9
$UCSORGRIGHT
 10
0.0
 20
0.0
 30
0.0
  9
$UCSORGFRONT
 10
0.0
 20
0.0
 30
0.0
  9
$UCSORGBACK
 10
0.0
 20
0.0
 30
0.0
  9
$PUCSBASE
  2

  9
$PUCSNAME
  2

  9
$PUCSORG
 10
0.0
 20
0.0
 30
0.0
  9
$PUCSXDIR
 10
1.0
 20
0.0
 30
0.0
  9
$PUCSYDIR
 10
0.0
 20
1.0
 30
0.0
  9
$PUCSORTHOREF
  2

  9
$PUCSORTHOVIEW
 70
     0
  9
$PUCSORGTOP
 10
0.0
 20
0.0
 30
0.0
  9
$PUCSORGBOTTOM
 10
0.0
 20
0.0
 30
0.0
  9
$PUCSORGLEFT
 10
0.0
 20
0.0
 30
0.0
  9
$PUCSORGRIGHT
 10
0.0
 20
0.0
 30
0.0
  9
$PUCSORGFRONT
 10
0.0
 20
0.0
 30
0.0
  9
$PUCSORGBACK
 10
0.0
 20
0.0
 30
0.0
  9
$USERI1
 70
     0
  9
$USERI2
 70
     0
  9
$USERI3
 70
     0
  9
$USERI4
 70
     0
  9
$USERI5
 70
     0
  9
$USERR1
 40
0.0
  9
$USERR2
 40
0.0
  9
$USERR3
 40
0.0
  9
$USERR4
 40
0.0
  9
$USERR5
 40
0.0
  9
$WORLDVIEW
 70
     1
  9
$SHADEDGE
 70
     3
  9
$SHADEDIF
 70
    70
  9
$TILEMODE
 70
     1
  9
$MAXACTVP
 70
    64
  9
$PINSBASE
 10
0.0
 20
0.0
 30
0.0
  9
$PLIMCHECK
 70
     0
  9
$PEXTMIN
 10
1.0000000000E+20
 20
1.0000000000E+20
 30
1.0000000000E+20
  9
$PEXTMAX
 10
-1.0000000000E+20
 20
-1.0000000000E+20
 30
-1.0000000000E+20
  9
$PLIMMIN
 10
0.0
 20
0.0
  9
$PLIMMAX
 10
420.0
 20
297.0
  9
$UNITMODE
 70
     0
  9
$VISRETAIN
 70
     1
  9
$PLINEGEN
 70
     0
  9
$PSLTSCALE
 70
     1
  9
$TREEDEPTH
 70
  3020
  9
$CMLSTYLE
  2
Standard
  9
$CMLJUST
 70
     0
  9
$CMLSCALE
 40
20.0
  9
$PROXYGRAPHICS
 70
     1
  9
$MEASUREMENT
 70
     1
  9
$CELWEIGHT
370
    -1
  9
$ENDCAPS
280
     0
  9
$JOINSTYLE
280
     0
  9
$LWDISPLAY
290
     1
  9
$INSUNITS
 70
     4
  9
$HYPERLINKBASE
  1

  9
$STYLESHEET
  1

  9
$XEDIT
290
     1
  9
$CEPSNTYPE
380
     0
  9
$PSTYLEMODE
290
     1
  9
$FINGERPRINTGUID
  2
{e5052c7e-663c-48aa-8dc3-f34f42098a88}
  9
$VERSIONGUID
  2
{FAEB1C32-E019-11D5-929B-00C0DF256EC4}
  9
$EXTNAMES
290
     1
  9
$PSVPSCALE
 40
0.0
  9
$OLESTARTUP
290
     0
  0
ENDSEC
  0
SECTION
  2
CLASSES
  0
CLASS
  1
ACDBDICTIONARYWDFLT
  2
AcDbDictionaryWithDefault
  3
ObjectDBX Classes
 90
        0
280
     0
281
     0
  0
CLASS
  1
VISUALSTYLE
  2
AcDbVisualStyle
  3
ObjectDBX Classes
 90
     4095
280
     0
281
     0
  0
CLASS
  1
MATERIAL
  2
AcDbMaterial
  3
ObjectDBX Classes
 90
     1153
280
     0
281
     0
  0
CLASS
  1
SCALE
  2
AcDbScale
  3
ObjectDBX Classes
 90
     1153
280
     0
281
     0
  0
CLASS
  1
TABLESTYLE
  2
AcDbTableStyle
  3
ObjectDBX Classes
 90
     4095
280
     0
281
     0
  0
CLASS
  1
MLEADERSTYLE
  2
AcDbMLeaderStyle
  3
ACDB_MLEADERSTYLE_CLASS
 90
     4095
280
     0
281
     0
  0
CLASS
  1
SUN
  2
AcDbSun
  3
SCENEOE
 90
     1153
280
     0
281
     0
  0
CLASS
  1
ACDBPLACEHOLDER
  2
AcDbPlaceHolder
  3
ObjectDBX Classes
 90
        0
280
     0
281
     0
  0
CLASS
  1
LAYOUT
  2
AcDbLayout
  3
ObjectDBX Classes
 90
        0
280
     0
281
     0
  0
ENDSEC
  0
SECTION
  2
TABLES
  0
TABLE
  2
VPORT
  5
8
330
0
100
AcDbSymbolTable
 70
     1
  0
VPORT
  5
29
330
8
100
AcDbSymbolTableRecord
100
AcDbViewportTableRecord
  2
*Active
 70
     0
 10
0.0
 20
0.0
 11
1.0
 21
1.0
 12
139.7
 22
107.95
 13
0.0
 23
0.0
 14
10.0
 24
10.0
 15
10.0
 25
10.0
 16
0.0
 26
0.0
 36
1.0
 17
0.0
 27
0.0
 37
0.0
 40
215.9
 41
1.2941176471
 42
50.0
 43
0.0
 44
0.0
 50
0.0
 51
0.0
 71
     0
 72
  2000
 73
     1
 74
     3
 75
     0
 76
     0
 77
     0
 78
     0
281
     0
 65
     1
110
0.0
120
0.0
130
0.0
111
1.0
121
0.0
131
0.0
112
0.0
122
1.0
132
0.0
 79
     0
146
0.0
  0
ENDTAB
  0
TABLE
  2
LTYPE
  5
5
330
0
100
AcDbSymbolTable
 70
     6
  0
LTYPE
  5
14
330
5
100
AcDbSymbolTableRecord
100
AcDbLinetypeTableRecord
  2
ByBlock
 70
     0
  3

 72
    65
 73
     0
 40
0.0
  0
LTYPE
  5
15
330
5
100
AcDbSymbolTableRecord
100
AcDbLinetypeTableRecord
  2
ByLayer
 70
     0
  3

 72
    65
 73
     0
 40
0.0
  0
LTYPE
  5
16
330
5
100
AcDbSymbolTableRecord
100
AcDbLinetypeTableRecord
  2
Continuous
 70
     0
  3
Solid line
 72
    65
 73
     0
 40
0.0
  0
LTYPE
  5
6E
330
5
100
AcDbSymbolTableRecord
100
AcDbLinetypeTableRecord
  2
HIDDEN
 70
     0
  3
Hidden __ __ __ __ __ __ __ __ __ __ __ __ __ __
 72
    65
 73
     2
 40
1.905
 49
1.27
 74
     0
 49
-0.635
 74
     0
  0
LTYPE
  5
6F
330
5
100
AcDbSymbolTableRecord
100
AcDbLinetypeTableRecord
  2
PHANTOM
 70
     0
  3
Phantom ______  __  __  ______  __  __  ______
 72
    65
 73
     6
 40
12.7
 49
6.35
 74
     0
 49
-1.27
 74
     0
 49
1.27
 74
     0
 49
-1.27
 74
     0
 49
1.27
 74
     0
 49
-1.27
 74
     0
  0
LTYPE
  5
70
330
5
100
AcDbSymbolTableRecord
100
AcDbLinetypeTableRecord
  2
CENTER
 70
     0
  3
Center ____ _ ____ _ ____ _ ____ _ ____ _ ____
 72
    65
 73
     4
 40
10.16
 49
6.35
 74
     0
 49
-1.27
 74
     0
 49
1.27
 74
     0
 49
-1.27
 74
     0
  0
LTYPE
  5
71
330
5
100
AcDbSymbolTableRecord
100
AcDbLinetypeTableRecord
  2
CENTERX2
 70
     0
  3
Center (2x) ________  __  ________  __  _____
 72
    65
 73
     4
 40
20.32
 49
12.7
 74
     0
 49
-2.54
 74
     0
 49
2.54
 74
     0
 49
-2.54
 74
     0
  0
LTYPE
  5
72
330
5
100
AcDbSymbolTableRecord
100
AcDbLinetypeTableRecord
  2
DOT2
 70
     0
  3
Dot (.5x) ........................................
 72
    65
 73
     2
 40
0.635
 49
0.0
 74
     0
 49
-0.635
 74
     0
  0
ENDTAB
  0
TABLE
  2
LAYER
  5
2
330
0
100
AcDbSymbolTable
 70
    17
  0
LAYER
  5
10
330
2
100
AcDbSymbolTableRecord
100
AcDbLayerTableRecord
  2
0
 70
     0
 62
     7
  6
Continuous
370
    -3
390
F
  0
LAYER
  5
73
330
2
100
AcDbSymbolTableRecord
100
AcDbLayerTableRecord
  2
FORMAT
 70
     0
 62
     7
  6
Continuous
370
    -3
390
F
  0
LAYER
  5
74
330
2
100
AcDbSymbolTableRecord
100
AcDbLayerTableRecord
  2
YARDIMCI_GEOMETRI
 70
     0
 62
    -6
  6
Continuous
290
     0
370
    -3
390
F
  0
LAYER
  5
75
330
2
100
AcDbSymbolTableRecord
100
AcDbLayerTableRecord
  2
SAYFA_CERCEVESI
 70
     0
 62
     7
  6
Continuous
370
    25
390
F
  0
LAYER
  5
76
330
2
100
AcDbSymbolTableRecord
100
AcDbLayerTableRecord
  2
ANTET
 70
     0
 62
     7
  6
Continuous
370
    -3
390
F
  0
LAYER
  5
77
330
2
100
AcDbSymbolTableRecord
100
AcDbLayerTableRecord
  2
OLCU
 70
     0
 62
   150
  6
Continuous
370
    -3
390
F
  0
LAYER
  5
78
330
2
100
AcDbSymbolTableRecord
100
AcDbLayerTableRecord
  2
METIN
 70
     0
 62
    96
  6
Continuous
370
    -3
390
F
  0
LAYER
  5
79
330
2
100
AcDbSymbolTableRecord
100
AcDbLayerTableRecord
  2
BALON
 70
     0
 62
     5
  6
Continuous
370
    -3
390
F
  0
LAYER
  5
7A
330
2
100
AcDbSymbolTableRecord
100
AcDbLayerTableRecord
  2
VURGU
 70
     0
 62
     7
  6
Continuous
370
    -3
390
F
  0
LAYER
  5
7B
330
2
100
AcDbSymbolTableRecord
100
AcDbLayerTableRecord
  2
SILIK
 70
     0
 62
     7
  6
Continuous
370
    -3
390
F
  0
LAYER
  5
7C
330
2
100
AcDbSymbolTableRecord
100
AcDbLayerTableRecord
  2
MODEL
 70
     0
 62
     7
  6
Continuous
370
    -3
390
F
  0
LAYER
  5
7D
330
2
100
AcDbSymbolTableRecord
100
AcDbLayerTableRecord
  2
DETAYLANDıRMA
 70
     0
 62
   190
  6
Continuous
370
    -3
390
F
  0
LAYER
  5
7E
330
2
100
AcDbSymbolTableRecord
100
AcDbLayerTableRecord
  2
TOLERANS
 70
     0
 62
   230
  6
Continuous
370
    -3
390
F
  0
LAYER
  5
7F
330
2
100
AcDbSymbolTableRecord
100
AcDbLayerTableRecord
  2
MERKEZ_CIZGILERI
 70
     0
 62
    30
  6
Continuous
370
    -3
390
F
  0
LAYER
  5
80
330
2
100
AcDbSymbolTableRecord
100
AcDbLayerTableRecord
  2
KESIT-DETAY_CIZGILERI
 70
     0
 62
     7
  6
Continuous
370
    -3
390
F
  0
LAYER
  5
81
330
2
100
AcDbSymbolTableRecord
100
AcDbLayerTableRecord
  2
\U+041E\U+0421\U+0415\U+0412\U+042B\U+0415
 70
     0
 62
     7
  6
Continuous
370
    -3
390
F
  0
LAYER
  5
82
330
2
100
AcDbSymbolTableRecord
100
AcDbLayerTableRecord
  2
\U+0412\U+041E\U+0414\U+042F\U+041D\U+042B\U+0415_\U+0417\U+041D\U+0410\U+041A\U+0418
 70
     0
 62
    11
  6
Continuous
370
    -3
390
F
  0
ENDTAB
  0
TABLE
  2
STYLE
  5
3
330
0
100
AcDbSymbolTable
 70
     1
  0
STYLE
  5
11
330
3
100
AcDbSymbolTableRecord
100
AcDbTextStyleTableRecord
  2
Standard
 70
     0
 40
0.0
 41
1.0
 50
0.0
 71
     0
 42
3.5
  3
txt
  4

  0
ENDTAB
  0
TABLE
  2
VIEW
  5
6
330
0
100
AcDbSymbolTable
 70
     0
  0
ENDTAB
  0
TABLE
  2
UCS
  5
7
330
0
100
AcDbSymbolTable
 70
     0
  0
ENDTAB
  0
TABLE
  2
APPID
  5
9
330
0
100
AcDbSymbolTable
 70
     1
  0
APPID
  5
12
330
9
100
AcDbSymbolTableRecord
100
AcDbRegAppTableRecord
  2
ACAD
 70
     0
  0
ENDTAB
  0
TABLE
  2
DIMSTYLE
  5
A
330
0
100
AcDbSymbolTable
 70
     1
100
AcDbDimStyleTable
  0
DIMSTYLE
105
27
330
A
100
AcDbSymbolTableRecord
100
AcDbDimStyleTableRecord
  2
ISO-25
 70
     0
 41
2.5
 42
0.625
 43
3.75
 44
1.25
 73
     0
 74
     0
 77
     1
 78
     8
140
2.5
141
2.5
143
0.0393700787
147
0.625
171
     3
172
     1
178
     0
271
     2
272
     2
274
     3
278
    44
283
     0
284
     8
340
11
  0
ENDTAB
  0
TABLE
  2
BLOCK_RECORD
  5
1
330
0
100
AcDbSymbolTable
 70
     5
  0
BLOCK_RECORD
  5
1F
330
1
100
AcDbSymbolTableRecord
100
AcDbBlockTableRecord
  2
*Model_Space
340
22
  0
BLOCK_RECORD
  5
1B
330
1
100
AcDbSymbolTableRecord
100
AcDbBlockTableRecord
  2
*Paper_Space
340
1E
  0
BLOCK_RECORD
  5
23
330
1
100
AcDbSymbolTableRecord
100
AcDbBlockTableRecord
  2
*Paper_Space0
340
26
  0
BLOCK_RECORD
  5
A5
330
1
100
AcDbSymbolTableRecord
100
AcDbBlockTableRecord
  2
SW_CENTERMARKSYMBOL_0
340
0
102
{BLKREFS
331
B0
102
}
  0
BLOCK_RECORD
  5
C1
330
1
100
AcDbSymbolTableRecord
100
AcDbBlockTableRecord
  2
SW_CENTERMARKSYMBOL_1
340
0
102
{BLKREFS
331
CC
102
}
  0
BLOCK_RECORD
  5
DE
330
1
100
AcDbSymbolTableRecord
100
AcDbBlockTableRecord
  2
SW_CENTERMARKSYMBOL_2
340
0
102
{BLKREFS
331
E9
102
}
  0
BLOCK_RECORD
  5
F9
330
1
100
AcDbSymbolTableRecord
100
AcDbBlockTableRecord
  2
SW_CENTERMARKSYMBOL_3
340
0
102
{BLKREFS
331
104
102
}
  0
ENDTAB
  0
ENDSEC
  0
SECTION
  2
BLOCKS
  0
BLOCK
  5
20
330
1F
100
AcDbEntity
  8
0
100
AcDbBlockBegin
  2
*Model_Space
 70
     0
 10
0.0
 20
0.0
 30
0.0
  3
*Model_Space
  1

  0
ENDBLK
  5
21
330
1F
100
AcDbEntity
  8
0
100
AcDbBlockEnd
  0
BLOCK
  5
1C
330
1B
100
AcDbEntity
 67
     1
  8
0
100
AcDbBlockBegin
  2
*Paper_Space
 70
     0
 10
0.0
 20
0.0
 30
0.0
  3
*Paper_Space
  1

  0
ENDBLK
  5
1D
330
1B
100
AcDbEntity
 67
     1
  8
0
100
AcDbBlockEnd
  0
BLOCK
  5
24
330
23
100
AcDbEntity
  8
0
100
AcDbBlockBegin
  2
*Paper_Space0
 70
     0
 10
0.0
 20
0.0
 30
0.0
  3
*Paper_Space0
  1

  0
ENDBLK
  5
25
330
23
100
AcDbEntity
  8
0
100
AcDbBlockEnd
  0
BLOCK
  5
A6
330
A5
100
AcDbEntity
  8
0
100
AcDbBlockBegin
  2
SW_CENTERMARKSYMBOL_0
 70
     0
 10
0.0
 20
0.0
 30
0.0
  3
SW_CENTERMARKSYMBOL_0
  1

  0
LINE
  5
A8
330
A5
100
AcDbEntity
  8
FORMAT
 62
     0
100
AcDbLine
 10
0.0
 20
0.0
 30
0.0
 11
0.0
 21
2.5
 31
0.0
  0
LINE
  5
A9
330
A5
100
AcDbEntity
  8
FORMAT
 62
     0
100
AcDbLine
 10
0.0
 20
0.0
 30
0.0
 11
-2.5
 21
0.0
 31
0.0
  0
LINE
  5
AA
330
A5
100
AcDbEntity
  8
FORMAT
 62
     0
100
AcDbLine
 10
0.0
 20
0.0
 30
0.0
 11
0.0
 21
-2.5
 31
0.0
  0
LINE
  5
AB
330
A5
100
AcDbEntity
  8
FORMAT
 62
     0
100
AcDbLine
 10
0.0
 20
0.0
 30
0.0
 11
2.5
 21
0.0
 31
0.0
  0
LINE
  5
AC
330
A5
100
AcDbEntity
  8
FORMAT
 62
     0
100
AcDbLine
 10
0.0
 20
5.0
 30
0.0
 11
0.0
 21
59.0
 31
0.0
  0
LINE
  5
AD
330
A5
100
AcDbEntity
  8
FORMAT
 62
     0
100
AcDbLine
 10
-5.0
 20
0.0
 30
0.0
 11
-59.0
 21
0.0
 31
0.0
  0
LINE
  5
AE
330
A5
100
AcDbEntity
  8
FORMAT
 62
     0
100
AcDbLine
 10
0.0
 20
-5.0
 30
0.0
 11
0.0
 21
-59.0
 31
0.0
  0
LINE
  5
AF
330
A5
100
AcDbEntity
  8
FORMAT
 62
     0
100
AcDbLine
 10
5.0
 20
0.0
 30
0.0
 11
59.0
 21
0.0
 31
0.0
  0
ENDBLK
  5
A7
330
A5
100
AcDbEntity
  8
0
100
AcDbBlockEnd
  0
BLOCK
  5
C2
330
C1
100
AcDbEntity
  8
0
100
AcDbBlockBegin
  2
SW_CENTERMARKSYMBOL_1
 70
     0
 10
0.0
 20
0.0
 30
0.0
  3
SW_CENTERMARKSYMBOL_1
  1

  0
LINE
  5
C4
330
C1
100
AcDbEntity
  8
FORMAT
 62
     0
100
AcDbLine
 10
0.0
 20
0.0
 30
0.0
 11
0.0
 21
2.5
 31
0.0
  0
LINE
  5
C5
330
C1
100
AcDbEntity
  8
FORMAT
 62
     0
100
AcDbLine
 10
0.0
 20
0.0
 30
0.0
 11
-2.5
 21
0.0
 31
0.0
  0
LINE
  5
C6
330
C1
100
AcDbEntity
  8
FORMAT
 62
     0
100
AcDbLine
 10
0.0
 20
0.0
 30
0.0
 11
0.0
 21
-2.5
 31
0.0
  0
LINE
  5
C7
330
C1
100
AcDbEntity
  8
FORMAT
 62
     0
100
AcDbLine
 10
0.0
 20
0.0
 30
0.0
 11
2.5
 21
0.0
 31
0.0
  0
LINE
  5
C8
330
C1
100
AcDbEntity
  8
FORMAT
 62
     0
100
AcDbLine
 10
0.0
 20
5.0
 30
0.0
 11
0.0
 21
59.0
 31
0.0
  0
LINE
  5
C9
330
C1
100
AcDbEntity
  8
FORMAT
 62
     0
100
AcDbLine
 10
-5.0
 20
0.0
 30
0.0
 11
-59.0
 21
0.0
 31
0.0
  0
LINE
  5
CA
330
C1
100
AcDbEntity
  8
FORMAT
 62
     0
100
AcDbLine
 10
0.0
 20
-5.0
 30
0.0
 11
0.0
 21
-59.0
 31
0.0
  0
LINE
  5
CB
330
C1
100
AcDbEntity
  8
FORMAT
 62
     0
100
AcDbLine
 10
5.0
 20
0.0
 30
0.0
 11
59.0
 21
0.0
 31
0.0
  0
ENDBLK
  5
C3
330
C1
100
AcDbEntity
  8
0
100
AcDbBlockEnd
  0
BLOCK
  5
DF
330
DE
100
AcDbEntity
  8
0
100
AcDbBlockBegin
  2
SW_CENTERMARKSYMBOL_2
 70
     0
 10
0.0
 20
0.0
 30
0.0
  3
SW_CENTERMARKSYMBOL_2
  1

  0
LINE
  5
E1
330
DE
100
AcDbEntity
  8
FORMAT
 62
     0
100
AcDbLine
 10
0.0
 20
0.0
 30
0.0
 11
0.0
 21
2.5
 31
0.0
  0
LINE
  5
E2
330
DE
100
AcDbEntity
  8
FORMAT
 62
     0
100
AcDbLine
 10
0.0
 20
0.0
 30
0.0
 11
-2.5
 21
0.0
 31
0.0
  0
LINE
  5
E3
330
DE
100
AcDbEntity
  8
FORMAT
 62
     0
100
AcDbLine
 10
0.0
 20
0.0
 30
0.0
 11
0.0
 21
-2.5
 31
0.0
  0
LINE
  5
E4
330
DE
100
AcDbEntity
  8
FORMAT
 62
     0
100
AcDbLine
 10
0.0
 20
0.0
 30
0.0
 11
2.5
 21
0.0
 31
0.0
  0
LINE
  5
E5
330
DE
100
AcDbEntity
  8
FORMAT
 62
     0
100
AcDbLine
 10
0.0
 20
5.0
 30
0.0
 11
0.0
 21
59.0
 31
0.0
  0
LINE
  5
E6
330
DE
100
AcDbEntity
  8
FORMAT
 62
     0
100
AcDbLine
 10
-5.0
 20
0.0
 30
0.0
 11
-59.0
 21
0.0
 31
0.0
  0
LINE
  5
E7
330
DE
100
AcDbEntity
  8
FORMAT
 62
     0
100
AcDbLine
 10
0.0
 20
-5.0
 30
0.0
 11
0.0
 21
-59.0
 31
0.0
  0
LINE
  5
E8
330
DE
100
AcDbEntity
  8
FORMAT
 62
     0
100
AcDbLine
 10
5.0
 20
0.0
 30
0.0
 11
59.0
 21
0.0
 31
0.0
  0
ENDBLK
  5
E0
330
DE
100
AcDbEntity
  8
0
100
AcDbBlockEnd
  0
BLOCK
  5
FA
330
F9
100
AcDbEntity
  8
0
100
AcDbBlockBegin
  2
SW_CENTERMARKSYMBOL_3
 70
     0
 10
0.0
 20
0.0
 30
0.0
  3
SW_CENTERMARKSYMBOL_3
  1

  0
LINE
  5
FC
330
F9
100
AcDbEntity
  8
FORMAT
 62
     0
100
AcDbLine
 10
0.0
 20
0.0
 30
0.0
 11
0.0
 21
2.5
 31
0.0
  0
LINE
  5
FD
330
F9
100
AcDbEntity
  8
FORMAT
 62
     0
100
AcDbLine
 10
0.0
 20
0.0
 30
0.0
 11
-2.5
 21
0.0
 31
0.0
  0
LINE
  5
FE
330
F9
100
AcDbEntity
  8
FORMAT
 62
     0
100
AcDbLine
 10
0.0
 20
0.0
 30
0.0
 11
0.0
 21
-2.5
 31
0.0
  0
LINE
  5
FF
330
F9
100
AcDbEntity
  8
FORMAT
 62
     0
100
AcDbLine
 10
0.0
 20
0.0
 30
0.0
 11
2.5
 21
0.0
 31
0.0
  0
LINE
  5
100
330
F9
100
AcDbEntity
  8
FORMAT
 62
     0
100
AcDbLine
 10
0.0
 20
5.0
 30
0.0
 11
0.0
 21
59.0
 31
0.0
  0
LINE
  5
101
330
F9
100
AcDbEntity
  8
FORMAT
 62
     0
100
AcDbLine
 10
-5.0
 20
0.0
 30
0.0
 11
-59.0
 21
0.0
 31
0.0
  0
LINE
  5
102
330
F9
100
AcDbEntity
  8
FORMAT
 62
     0
100
AcDbLine
 10
0.0
 20
-5.0
 30
0.0
 11
0.0
 21
-59.0
 31
0.0
  0
LINE
  5
103
330
F9
100
AcDbEntity
  8
FORMAT
 62
     0
100
AcDbLine
 10
5.0
 20
0.0
 30
0.0
 11
59.0
 21
0.0
 31
0.0
  0
ENDBLK
  5
FB
330
F9
100
AcDbEntity
  8
0
100
AcDbBlockEnd
  0
ENDSEC
  0
SECTION
  2
ENTITIES
  0
LINE
  5
83
330
1F
100
AcDbEntity
  8
0
  6
Continuous
 62
     7
370
    25
100
AcDbLine
 10
59.792148008
 20
78.6481185741
 30
0.0
 11
59.792148008
 21
26.6481185741
 31
0.0
  0
LINE
  5
84
330
1F
100
AcDbEntity
  8
0
  6
Continuous
 62
     7
370
    25
100
AcDbLine
 10
172.792148008
 20
26.6481185741
 30
0.0
 11
172.792148008
 21
78.6481185741
 31
0.0
  0
ARC
  5
85
330
1F
100
AcDbEntity
  8
0
  6
Continuous
 62
     7
370
    25
100
AcDbCircle
 10
173.292148008
 20
78.6481185741
 30
0.0
 40
0.5
100
AcDbArc
 50
90.0
 51
180.0
  0
ARC
  5
86
330
1F
100
AcDbEntity
  8
0
  6
Continuous
 62
     7
370
    25
100
AcDbCircle
 10
173.292148008
 20
78.6481185741
 30
0.0
 40
113.5
100
AcDbArc
 50
90.0
 51
180.0
  0
LINE
  5
87
330
1F
100
AcDbEntity
  8
0
  6
Continuous
 62
     7
370
    25
100
AcDbLine
 10
225.292148008
 20
192.1481185741
 30
0.0
 11
173.292148008
 21
192.1481185741
 31
0.0
  0
LINE
  5
88
330
1F
100
AcDbEntity
  8
0
  6
Continuous
 62
     7
370
    25
100
AcDbLine
 10
173.292148008
 20
79.1481185741
 30
0.0
 11
225.292148008
 21
79.1481185741
 31
0.0
  0
CIRCLE
  5
89
330
1F
100
AcDbEntity
  8
0
  6
Continuous
 62
     7
370
    25
100
AcDbCircle
 10
116.292148008
 20
36.6481185741
 30
0.0
 40
5.000000000000014
  0
CIRCLE
  5
8A
330
1F
100
AcDbEntity
  8
0
  6
Continuous
 62
     7
370
    25
100
AcDbCircle
 10
116.292148008
 20
36.6481185741
 30
0.0
 40
7.000000000000014
  0
CIRCLE
  5
8B
330
1F
100
AcDbEntity
  8
0
  6
Continuous
 62
     7
370
    25
100
AcDbCircle
 10
215.292148008
 20
135.6481185741
 30
0.0
 40
7.000000000000028
  0
CIRCLE
  5
8C
330
1F
100
AcDbEntity
  8
0
  6
Continuous
 62
     7
370
    25
100
AcDbCircle
 10
215.292148008
 20
135.6481185741
 30
0.0
 40
5.0
  0
LINE
  5
8D
330
1F
100
AcDbEntity
  8
0
  6
Continuous
 62
     7
370
    25
100
AcDbLine
 10
116.292148008
 20
26.6481185741
 30
0.0
 11
172.792148008
 21
26.6481185741
 31
0.0
  0
LINE
  5
8E
330
1F
100
AcDbEntity
  8
0
  6
Continuous
 62
     7
370
    25
100
AcDbLine
 10
59.792148008
 20
26.6481185741
 30
0.0
 11
116.292148008
 21
26.6481185741
 31
0.0
  0
LINE
  5
8F
330
1F
100
AcDbEntity
  8
0
  6
Continuous
 62
     7
370
    25
100
AcDbLine
 10
225.292148008
 20
135.6481185741
 30
0.0
 11
225.292148008
 21
79.1481185741
 31
0.0
  0
LINE
  5
90
330
1F
100
AcDbEntity
  8
0
  6
Continuous
 62
     7
370
    25
100
AcDbLine
 10
225.292148008
 20
192.1481185741
 30
0.0
 11
225.292148008
 21
135.6481185741
 31
0.0
  0
LINE
  5
91
330
1F
100
AcDbEntity
  8
0
  6
Continuous
 62
     1
370
    25
100
AcDbLine
 10
116.292148008
 20
78.6481185741
 30
0.0
 11
172.792148008
 21
78.6481185741
 31
0.0
  0
LINE
  5
92
330
1F
100
AcDbEntity
  8
0
  6
Continuous
 62
     1
370
    25
100
AcDbLine
 10
59.792148008
 20
78.6481185741
 30
0.0
 11
116.292148008
 21
78.6481185741
 31
0.0
  0
LINE
  5
93
330
1F
100
AcDbEntity
  8
0
  6
Continuous
 62
     1
370
    25
100
AcDbLine
 10
173.292148008
 20
135.6481185741
 30
0.0
 11
173.292148008
 21
79.1481185741
 31
0.0
  0
LINE
  5
94
330
1F
100
AcDbEntity
  8
0
  6
Continuous
 62
     1
370
    25
100
AcDbLine
 10
173.292148008
 20
192.1481185741
 30
0.0
 11
173.292148008
 21
135.6481185741
 31
0.0
  0
LINE
  5
95
330
1F
100
AcDbEntity
  8
0
  6
Continuous
 62
     7
370
    25
100
AcDbLine
 10
-139.0447613521
 20
142.6481185741
 30
0.0
 11
-154.4799732209
 21
142.6481185741
 31
0.0
  0
LINE
  5
96
330
1F
100
AcDbEntity
  8
0
  6
Continuous
 62
     7
370
    25
100
AcDbLine
 10
-154.4799732209
 20
128.6481185741
 30
0.0
 11
-139.0475281372
 21
128.6481185741
 31
0.0
  0
LINE
  5
97
330
1F
100
AcDbEntity
  8
0
  6
Continuous
 62
     7
370
    25
100
AcDbLine
 10
-139.4799732209
 20
128.6481185741
 30
0.0
 11
-139.4799732209
 21
78.6481185741
 31
0.0
  0
LINE
  5
98
330
1F
100
AcDbEntity
  8
0
  6
Continuous
 62
     7
370
    25
100
AcDbLine
 10
-26.4799732209
 20
78.6481185741
 30
0.0
 11
-26.4799732209
 21
135.6481185741
 31
0.0
  0
LINE
  5
99
330
1F
100
AcDbEntity
  8
0
  6
Continuous
 62
     7
370
    25
100
AcDbLine
 10
-139.4799732209
 20
29.6481185741
 30
0.0
 11
-139.4799732209
 21
26.6481185741
 31
0.0
  0
LINE
  5
9A
330
1F
100
AcDbEntity
  8
0
  6
Continuous
 62
     7
370
    25
100
AcDbLine
 10
-139.4799732209
 20
78.6481185741
 30
0.0
 11
-139.4799732209
 21
43.6272732329
 31
0.0
  0
LINE
  5
9B
330
1F
100
AcDbEntity
  8
0
  6
Continuous
 62
     7
370
    25
100
AcDbLine
 10
-26.4799732209
 20
26.6481185741
 30
0.0
 11
-26.4799732209
 21
78.6481185741
 31
0.0
  0
LINE
  5
9C
330
1F
100
AcDbEntity
  8
0
  6
Continuous
 62
     7
370
    25
100
AcDbLine
 10
-139.4773989503
 20
43.6481185741
 30
0.0
 11
-154.4799732209
 21
43.6481185741
 31
0.0
  0
LINE
  5
9D
330
1F
100
AcDbEntity
  8
0
  6
Continuous
 62
     7
370
    25
100
AcDbLine
 10
-154.4799732209
 20
29.6481185741
 30
0.0
 11
-139.4799732209
 21
29.6481185741
 31
0.0
  0
CIRCLE
  5
9E
330
1F
100
AcDbEntity
  8
0
  6
Continuous
 62
     7
370
    25
100
AcDbCircle
 10
-82.9799732209
 20
135.6481185741
 30
0.0
 40
56.5
  0
CIRCLE
  5
9F
330
1F
100
AcDbEntity
  8
0
  6
Continuous
 62
     7
370
    25
100
AcDbCircle
 10
-82.9799732209
 20
135.6481185741
 30
0.0
 40
45.00000000000001
  0
LINE
  5
A0
330
1F
100
AcDbEntity
  8
0
  6
Continuous
 62
     7
370
    25
100
AcDbLine
 10
-154.4799732209
 20
142.6481185741
 30
0.0
 11
-154.4799732209
 21
128.6481185741
 31
0.0
  0
SPLINE
  5
A1
330
1F
100
AcDbEntity
  8
0
  6
Continuous
 62
     7
370
    25
100
AcDbSpline
210
0.0
220
0.0
230
1.0
 70
     8
 71
     3
 72
    26
 73
    22
 74
     0
 42
0.00000001
 43
0.00000001
 40
0.0
 40
0.0
 40
0.0
 40
0.0
 40
0.0526490229088549
 40
0.1068319757389342
 40
0.1594789866719635
 40
0.2136391441771004
 40
0.2665357071309201
 40
0.3209556956636122
 40
0.3740147810991073
 40
0.428627630722757
 40
0.4814108345313726
 40
0.5357421182276089
 40
0.5882411132294614
 40
0.6422551959765139
 40
0.6949048545776629
 40
0.7490611271031326
 40
0.802060391815201
 40
0.8565948807291774
 40
0.9095997133815981
 40
0.9641613956867691
 40
1.0
 40
1.0
 40
1.0
 40
1.0
 10
-139.4799732208972
 20
29.64811857412124
 30
0.0
 10
-139.4776611736344
 20
29.66665666168147
 30
0.0
 10
-139.4729697175836
 20
29.70427294420793
 30
0.0
 10
-139.4362160773653
 20
30.00678919533981
 30
0.0
 10
-139.3814860621347
 20
30.48504966575486
 30
0.0
 10
-139.3134576918936
 20
31.13548162250969
 30
0.0
 10
-139.2391004285448
 20
31.94768608665956
 30
0.0
 10
-139.1676714319288
 20
32.88762055906766
 30
0.0
 10
-139.1062308768209
 20
33.9450159993893
 30
0.0
 10
-139.0629045987257
 20
35.06965910743209
 30
0.0
 10
-139.0419368296282
 20
36.24826579301669
 30
0.0
 10
-139.0459343020095
 20
37.42346247502689
 30
0.0
 10
-139.0743050759511
 20
38.58482576879743
 30
0.0
 10
-139.1232513469141
 20
39.67995251247239
 30
0.0
 10
-139.1881517663376
 20
40.69997984083994
 30
0.0
 10
-139.2609144648692
 20
41.60042195665622
 30
0.0
 10
-139.3345111917981
 20
42.37013091351571
 30
0.0
 10
-139.3997978243431
 20
42.97513429884177
 30
0.0
 10
-139.4491771990737
 20
43.39776533963433
 30
0.0
 10
-139.4772138698143
 20
43.62592588165128
 30
0.0
 10
-139.4773447791118
 20
43.62689072642983
 30
0.0
 10
-139.4773966772494
 20
43.6272732328525
 30
0.0
  0
LINE
  5
A2
330
1F
100
AcDbEntity
  8
0
  6
Continuous
 62
     7
370
    25
100
AcDbLine
 10
-139.4799732209
 20
26.6481185741
 30
0.0
 11
-26.4799732209
 21
26.6481185741
 31
0.0
  0
LINE
  5
A3
330
1F
100
AcDbEntity
  8
0
  6
Continuous
 62
     7
370
    25
100
AcDbLine
 10
-154.4799732209
 20
43.6481185741
 30
0.0
 11
-154.4799732209
 21
29.6481185741
 31
0.0
  0
LINE
  5
A4
330
1F
100
AcDbEntity
  8
0
  6
Continuous
 62
     1
370
    25
100
AcDbLine
 10
-139.4799732209
 20
78.6481185741
 30
0.0
 11
-26.4799732209
 21
78.6481185741
 31
0.0
  0
INSERT
  5
B0
330
1F
100
AcDbEntity
  8
FORMAT
 62
     7
100
AcDbBlockReference
  2
SW_CENTERMARKSYMBOL_0
 10
-82.9799732209
 20
135.6481185741
 30
0.0
  0
LINE
  5
B1
330
1F
100
AcDbEntity
  8
0
  6
Continuous
 62
     7
370
    25
100
AcDbLine
 10
123.292148008
 20
369.7075372434
 30
0.0
 11
123.292148008
 21
385.1399823271
 31
0.0
  0
LINE
  5
B2
330
1F
100
AcDbEntity
  8
0
  6
Continuous
 62
     7
370
    25
100
AcDbLine
 10
109.292148008
 20
385.1399823271
 30
0.0
 11
109.292148008
 21
369.7047704583
 31
0.0
  0
LINE
  5
B3
330
1F
100
AcDbEntity
  8
0
  6
Continuous
 62
     7
370
    25
100
AcDbLine
 10
173.292148008
 20
370.1399823271
 30
0.0
 11
123.292148008
 21
370.1399823271
 31
0.0
  0
LINE
  5
B4
330
1F
100
AcDbEntity
  8
0
  6
Continuous
 62
     7
370
    25
100
AcDbLine
 10
116.292148008
 20
257.1399823271
 30
0.0
 11
173.292148008
 21
257.1399823271
 31
0.0
  0
LINE
  5
B5
330
1F
100
AcDbEntity
  8
0
  6
Continuous
 62
     7
370
    25
100
AcDbLine
 10
208.292148008
 20
370.1399823271
 30
0.0
 11
173.292148008
 21
370.1399823271
 31
0.0
  0
LINE
  5
B6
330
1F
100
AcDbEntity
  8
0
  6
Continuous
 62
     7
370
    25
100
AcDbLine
 10
225.292148008
 20
370.1399823271
 30
0.0
 11
222.2713026668
 21
370.1399823271
 31
0.0
  0
LINE
  5
B7
330
1F
100
AcDbEntity
  8
0
  6
Continuous
 62
     7
370
    25
100
AcDbLine
 10
173.292148008
 20
257.1399823271
 30
0.0
 11
225.292148008
 21
257.1399823271
 31
0.0
  0
LINE
  5
B8
330
1F
100
AcDbEntity
  8
0
  6
Continuous
 62
     7
370
    25
100
AcDbLine
 10
222.292148008
 20
370.1374080564
 30
0.0
 11
222.292148008
 21
385.1399823271
 31
0.0
  0
LINE
  5
B9
330
1F
100
AcDbEntity
  8
0
  6
Continuous
 62
     7
370
    25
100
AcDbLine
 10
208.292148008
 20
385.1399823271
 30
0.0
 11
208.292148008
 21
370.1399823271
 31
0.0
  0
CIRCLE
  5
BA
330
1F
100
AcDbEntity
  8
0
  6
Continuous
 62
     7
370
    25
100
AcDbCircle
 10
116.292148008
 20
313.6399823271
 30
0.0
 40
45.00000000000006
  0
CIRCLE
  5
BB
330
1F
100
AcDbEntity
  8
0
  6
Continuous
 62
     7
370
    25
100
AcDbCircle
 10
116.292148008
 20
313.6399823271
 30
0.0
 40
56.5
  0
LINE
  5
BC
330
1F
100
AcDbEntity
  8
0
  6
Continuous
 62
     7
370
    25
100
AcDbLine
 10
123.292148008
 20
385.1399823271
 30
0.0
 11
109.292148008
 21
385.1399823271
 31
0.0
  0
SPLINE
  5
BD
330
1F
100
AcDbEntity
  8
0
  6
Continuous
 62
     7
370
    25
100
AcDbSpline
210
0.0
220
0.0
230
1.0
 70
     8
 71
     3
 72
    26
 73
    22
 74
     0
 42
0.00000001
 43
0.00000001
 40
0.0
 40
0.0
 40
0.0
 40
0.0
 40
0.0526490229088551
 40
0.1068319757389347
 40
0.1594789866719641
 40
0.2136391441771005
 40
0.2665357071309202
 40
0.3209556956636125
 40
0.3740147810991075
 40
0.4286276307227578
 40
0.4814108345313733
 40
0.5357421182276092
 40
0.588241113229462
 40
0.642255195976515
 40
0.6949048545776638
 40
0.7490611271031328
 40
0.8020603918152016
 40
0.8565948807291777
 40
0.9095997133815986
 40
0.9641613956867697
 40
1.0
 40
1.0
 40
1.0
 40
1.0
 10
208.2921480080447
 20
370.1399823270764
 30
0.0
 10
208.310686095605
 20
370.1376702798136
 30
0.0
 10
208.3483023781314
 20
370.1329788237629
 30
0.0
 10
208.6508186292633
 20
370.0962251835446
 30
0.0
 10
209.1290790996784
 20
370.041495168314
 30
0.0
 10
209.7795110564331
 20
369.9734667980729
 30
0.0
 10
210.5917155205831
 20
369.8991095347241
 30
0.0
 10
211.5316499929912
 20
369.827680538108
 30
0.0
 10
212.5890454333128
 20
369.7662399830002
 30
0.0
 10
213.7136885413556
 20
369.722913704905
 30
0.0
 10
214.8922952269402
 20
369.7019459358075
 30
0.0
 10
216.0674919089504
 20
369.7059434081888
 30
0.0
 10
217.228855202721
 20
369.7343141821304
 30
0.0
 10
218.3239819463959
 20
369.7832604530934
 30
0.0
 10
219.3440092747634
 20
369.8481608725168
 30
0.0
 10
220.2444513905797
 20
369.9209235710485
 30
0.0
 10
221.0141603474393
 20
369.9945202979774
 30
0.0
 10
221.6191637327653
 20
370.0598069305224
 30
0.0
 10
222.0417947735579
 20
370.109186305253
 30
0.0
 10
222.2699553155747
 20
370.1372229759936
 30
0.0
 10
222.2709201603533
 20
370.1373538852911
 30
0.0
 10
222.271302666776
 20
370.1374057834287
 30
0.0
  0
LINE
  5
BE
330
1F
100
AcDbEntity
  8
0
  6
Continuous
 62
     7
370
    25
100
AcDbLine
 10
225.292148008
 20
370.1399823271
 30
0.0
 11
225.292148008
 21
257.1399823271
 31
0.0
  0
LINE
  5
BF
330
1F
100
AcDbEntity
  8
0
  6
Continuous
 62
     7
370
    25
100
AcDbLine
 10
222.292148008
 20
385.1399823271
 30
0.0
 11
208.292148008
 21
385.1399823271
 31
0.0
  0
LINE
  5
C0
330
1F
100
AcDbEntity
  8
0
  6
Continuous
 62
     1
370
    25
100
AcDbLine
 10
173.292148008
 20
370.1399823271
 30
0.0
 11
173.292148008
 21
257.1399823271
 31
0.0
  0
INSERT
  5
CC
330
1F
100
AcDbEntity
  8
FORMAT
 62
     7
100
AcDbBlockReference
  2
SW_CENTERMARKSYMBOL_1
 10
116.292148008
 20
313.6399823271
 30
0.0
  0
LINE
  5
CD
330
1F
100
AcDbEntity
  8
0
  6
Continuous
 62
     7
370
    25
100
AcDbLine
 10
299.660849807
 20
78.6481185741
 30
0.0
 11
299.660849807
 21
26.6481185741
 31
0.0
  0
LINE
  5
CE
330
1F
100
AcDbEntity
  8
0
  6
Continuous
 62
     7
370
    25
100
AcDbLine
 10
412.660849807
 20
43.6272732329
 30
0.0
 11
412.660849807
 21
78.6481185741
 31
0.0
  0
LINE
  5
CF
330
1F
100
AcDbEntity
  8
0
  6
Continuous
 62
     7
370
    25
100
AcDbLine
 10
412.660849807
 20
26.6481185741
 30
0.0
 11
412.660849807
 21
29.6481185741
 31
0.0
  0
LINE
  5
D0
330
1F
100
AcDbEntity
  8
0
  6
Continuous
 62
     7
370
    25
100
AcDbLine
 10
412.660849807
 20
78.6481185741
 30
0.0
 11
412.660849807
 21
135.6481185741
 31
0.0
  0
LINE
  5
D1
330
1F
100
AcDbEntity
  8
0
  6
Continuous
 62
     7
370
    25
100
AcDbLine
 10
299.660849807
 20
135.6481185741
 30
0.0
 11
299.660849807
 21
78.6481185741
 31
0.0
  0
LINE
  5
D2
330
1F
100
AcDbEntity
  8
0
  6
Continuous
 62
     7
370
    25
100
AcDbLine
 10
412.660849807
 20
29.6481185741
 30
0.0
 11
427.660849807
 21
29.6481185741
 31
0.0
  0
LINE
  5
D3
330
1F
100
AcDbEntity
  8
0
  6
Continuous
 62
     7
370
    25
100
AcDbLine
 10
427.660849807
 20
43.6481185741
 30
0.0
 11
412.6582755363
 21
43.6481185741
 31
0.0
  0
LINE
  5
D4
330
1F
100
AcDbEntity
  8
0
  6
Continuous
 62
     7
370
    25
100
AcDbLine
 10
412.660849807
 20
128.6481185741
 30
0.0
 11
427.660849807
 21
128.6481185741
 31
0.0
  0
LINE
  5
D5
330
1F
100
AcDbEntity
  8
0
  6
Continuous
 62
     7
370
    25
100
AcDbLine
 10
427.660849807
 20
142.6481185741
 30
0.0
 11
412.2256379382
 21
142.6481185741
 31
0.0
  0
LINE
  5
D6
330
1F
100
AcDbEntity
  8
0
  6
Continuous
 62
     7
370
    25
100
AcDbLine
 10
299.660849807
 20
26.6481185741
 30
0.0
 11
412.660849807
 21
26.6481185741
 31
0.0
  0
SPLINE
  5
D7
330
1F
100
AcDbEntity
  8
0
  6
Continuous
 62
     7
370
    25
100
AcDbSpline
210
0.0
220
0.0
230
1.0
 70
     8
 71
     3
 72
    26
 73
    22
 74
     0
 42
0.00000001
 43
0.00000001
 40
0.0
 40
0.0
 40
0.0
 40
0.0
 40
0.0168217826092406
 40
0.0710209342147143
 40
0.1235252358253012
 40
0.1775376466967739
 40
0.2303112414297016
 40
0.2845982464307306
 40
0.3376553873860361
 40
0.3922582670244228
 40
0.4451696697428871
 40
0.4996362616132666
 40
0.5521954174510136
 40
0.6062806122808267
 40
0.6588324041835979
 40
0.7128887686268414
 40
0.765787101219296
 40
0.8202089136812798
 40
0.8732696261594971
 40
0.9278840505785754
 40
1.0
 40
1.0
 40
1.0
 40
1.0
 10
412.6582732633125
 20
43.6272732328525
 30
0.0
 10
412.6589953789601
 20
43.63311643533868
 30
0.0
 10
412.6620441240951
 20
43.65778621671765
 30
0.0
 10
412.642570702053
 20
43.5006584436908
 30
0.0
 10
412.6014036618548
 20
43.15559228855064
 30
0.0
 10
412.541443955768
 20
42.61884957670481
 30
0.0
 10
412.4703492915422
 20
41.91212555271449
 30
0.0
 10
412.3964091047924
 20
41.0606237643028
 30
0.0
 10
412.3269528666511
 20
40.07413393102894
 30
0.0
 10
412.2710360060455
 20
38.99774672415034
 30
0.0
 10
412.2342467380388
 20
37.84456455044752
 30
0.0
 10
412.2213841495924
 20
36.67108305160443
 30
0.0
 10
412.233504899713
 20
35.489000033297
 30
0.0
 10
412.2688217802676
 20
34.35325093548924
 30
0.0
 10
412.3239076834427
 20
33.27266447567696
 30
0.0
 10
412.3918314483361
 20
32.29425584656629
 30
0.0
 10
412.4661498151592
 20
31.42838983610099
 30
0.0
 10
412.5376358081013
 20
30.71334465563569
 30
0.0
 10
412.5985722332064
 20
30.16439805249719
 30
0.0
 10
412.6489956447045
 20
29.74251429489897
 30
0.0
 10
412.6565506368693
 20
29.68235323792359
 30
0.0
 10
412.6608498069604
 20
29.64811857412123
 30
0.0
  0
ARC
  5
D8
330
1F
100
AcDbEntity
  8
0
  6
Continuous
 62
     7
370
    25
100
AcDbCircle
 10
356.160849807
 20
135.6481185741
 30
0.0
 40
56.5
100
AcDbArc
 50
0.0
 51
180.0
  0
LINE
  5
D9
330
1F
100
AcDbEntity
  8
0
  6
Continuous
 62
     7
370
    25
100
AcDbLine
 10
427.660849807
 20
36.6481185741
 30
0.0
 11
427.660849807
 21
43.6481185741
 31
0.0
  0
LINE
  5
DA
330
1F
100
AcDbEntity
  8
0
  6
Continuous
 62
     7
370
    25
100
AcDbLine
 10
427.660849807
 20
29.6481185741
 30
0.0
 11
427.660849807
 21
36.6481185741
 31
0.0
  0
LINE
  5
DB
330
1F
100
AcDbEntity
  8
0
  6
Continuous
 62
     7
370
    25
100
AcDbLine
 10
427.660849807
 20
135.6481185741
 30
0.0
 11
427.660849807
 21
142.6481185741
 31
0.0
  0
LINE
  5
DC
330
1F
100
AcDbEntity
  8
0
  6
Continuous
 62
     7
370
    25
100
AcDbLine
 10
427.660849807
 20
128.6481185741
 30
0.0
 11
427.660849807
 21
135.6481185741
 31
0.0
  0
LINE
  5
DD
330
1F
100
AcDbEntity
  8
0
  6
Continuous
 62
     1
370
    25
100
AcDbLine
 10
299.660849807
 20
78.6481185741
 30
0.0
 11
412.660849807
 21
78.6481185741
 31
0.0
  0
INSERT
  5
E9
330
1F
100
AcDbEntity
  8
FORMAT
 62
     7
100
AcDbBlockReference
  2
SW_CENTERMARKSYMBOL_2
 10
356.160849807
 20
135.6481185741
 30
0.0
  0
LINE
  5
EA
330
1F
100
AcDbEntity
  8
0
  6
Continuous
 62
     7
370
    25
100
AcDbLine
 10
116.292148008
 20
-171.0167080308
 30
0.0
 11
173.292148008
 21
-171.0167080308
 31
0.0
  0
LINE
  5
EB
330
1F
100
AcDbEntity
  8
0
  6
Continuous
 62
     7
370
    25
100
AcDbLine
 10
173.292148008
 20
-58.0167080308
 30
0.0
 11
116.292148008
 21
-58.0167080308
 31
0.0
  0
LINE
  5
EC
330
1F
100
AcDbEntity
  8
0
  6
Continuous
 62
     7
370
    25
100
AcDbLine
 10
225.292148008
 20
-58.0167080308
 30
0.0
 11
173.292148008
 21
-58.0167080308
 31
0.0
  0
LINE
  5
ED
330
1F
100
AcDbEntity
  8
0
  6
Continuous
 62
     7
370
    25
100
AcDbLine
 10
222.2713026668
 20
-171.0167080308
 30
0.0
 11
225.292148008
 21
-171.0167080308
 31
0.0
  0
LINE
  5
EE
330
1F
100
AcDbEntity
  8
0
  6
Continuous
 62
     7
370
    25
100
AcDbLine
 10
173.292148008
 20
-171.0167080308
 30
0.0
 11
208.292148008
 21
-171.0167080308
 31
0.0
  0
LINE
  5
EF
330
1F
100
AcDbEntity
  8
0
  6
Continuous
 62
     7
370
    25
100
AcDbLine
 10
208.292148008
 20
-171.0167080308
 30
0.0
 11
208.292148008
 21
-186.0167080308
 31
0.0
  0
LINE
  5
F0
330
1F
100
AcDbEntity
  8
0
  6
Continuous
 62
     7
370
    25
100
AcDbLine
 10
222.292148008
 20
-186.0167080308
 30
0.0
 11
222.292148008
 21
-171.0141337602
 31
0.0
  0
LINE
  5
F1
330
1F
100
AcDbEntity
  8
0
  6
Continuous
 62
     7
370
    25
100
AcDbLine
 10
109.292148008
 20
-170.581496162
 30
0.0
 11
109.292148008
 21
-186.0167080308
 31
0.0
  0
LINE
  5
F2
330
1F
100
AcDbEntity
  8
0
  6
Continuous
 62
     7
370
    25
100
AcDbLine
 10
123.292148008
 20
-186.0167080308
 30
0.0
 11
123.292148008
 21
-171.0167080308
 31
0.0
  0
ARC
  5
F3
330
1F
100
AcDbEntity
  8
0
  6
Continuous
 62
     7
370
    25
100
AcDbCircle
 10
116.292148008
 20
-114.5167080308
 30
0.0
 40
56.49999999999999
100
AcDbArc
 50
90.0
 51
270.0
  0
SPLINE
  5
F4
330
1F
100
AcDbEntity
  8
0
  6
Continuous
 62
     7
370
    25
100
AcDbSpline
210
0.0
220
0.0
230
1.0
 70
     8
 71
     3
 72
    26
 73
    22
 74
     0
 42
0.00000001
 43
0.00000001
 40
0.0
 40
0.0
 40
0.0
 40
0.0
 40
0.0168217826092416
 40
0.0710209342147151
 40
0.1235252358253027
 40
0.1775376466967745
 40
0.230311241429702
 40
0.284598246430731
 40
0.337655387386037
 40
0.3922582670244236
 40
0.4451696697428875
 40
0.4996362616132666
 40
0.552195417451014
 40
0.6062806122808271
 40
0.6588324041835981
 40
0.7128887686268413
 40
0.7657871012192962
 40
0.8202089136812807
 40
0.8732696261594973
 40
0.9278840505785757
 40
1.0
 40
1.0
 40
1.0
 40
1.0
 10
222.271302666776
 20
-171.0141314871406
 30
0.0
 10
222.2771458692622
 20
-171.0148536027881
 30
0.0
 10
222.3018156506412
 20
-171.0179023479232
 30
0.0
 10
222.1446878776144
 20
-170.9984289258811
 30
0.0
 10
221.7996217224741
 20
-170.9572618856829
 30
0.0
 10
221.2628790106283
 20
-170.897302179596
 30
0.0
 10
220.556154986638
 20
-170.8262075153702
 30
0.0
 10
219.7046531982263
 20
-170.7522673286204
 30
0.0
 10
218.7181633649524
 20
-170.6828110904792
 30
0.0
 10
217.6417761580738
 20
-170.6268942298736
 30
0.0
 10
216.4885939843711
 20
-170.5901049618669
 30
0.0
 10
215.3151124855279
 20
-170.5772423734205
 30
0.0
 10
214.1330294672205
 20
-170.589363123541
 30
0.0
 10
212.9972803694127
 20
-170.6246800040958
 30
0.0
 10
211.9166939096004
 20
-170.6797659072708
 30
0.0
 10
210.9382852804898
 20
-170.7476896721641
 30
0.0
 10
210.0724192700245
 20
-170.8220080389872
 30
0.0
 10
209.3573740895592
 20
-170.8934940319294
 30
0.0
 10
208.8084274864207
 20
-170.9544304570345
 30
0.0
 10
208.3865437288225
 20
-171.0048538685326
 30
0.0
 10
208.3263826718471
 20
-171.0124088606974
 30
0.0
 10
208.2921480080447
 20
-171.0167080307884
 30
0.0
  0
LINE
  5
F5
330
1F
100
AcDbEntity
  8
0
  6
Continuous
 62
     7
370
    25
100
AcDbLine
 10
225.292148008
 20
-58.0167080308
 30
0.0
 11
225.292148008
 21
-171.0167080308
 31
0.0
  0
LINE
  5
F6
330
1F
100
AcDbEntity
  8
0
  6
Continuous
 62
     7
370
    25
100
AcDbLine
 10
208.292148008
 20
-186.0167080308
 30
0.0
 11
222.292148008
 21
-186.0167080308
 31
0.0
  0
LINE
  5
F7
330
1F
100
AcDbEntity
  8
0
  6
Continuous
 62
     7
370
    25
100
AcDbLine
 10
109.292148008
 20
-186.0167080308
 30
0.0
 11
123.292148008
 21
-186.0167080308
 31
0.0
  0
LINE
  5
F8
330
1F
100
AcDbEntity
  8
0
  6
Continuous
 62
     1
370
    25
100
AcDbLine
 10
173.292148008
 20
-58.0167080308
 30
0.0
 11
173.292148008
 21
-171.0167080308
 31
0.0
  0
INSERT
  5
104
330
1F
100
AcDbEntity
  8
FORMAT
 62
     7
100
AcDbBlockReference
  2
SW_CENTERMARKSYMBOL_3
 10
116.292148008
 20
-114.5167080308
 30
0.0
  0
LINE
  5
105
330
1F
100
AcDbEntity
  8
0
  6
Continuous
 62
     7
370
    25
100
AcDbLine
 10
391.3305350538
 20
-2.4169433102
 30
0.0
 11
354.5609824321
 21
-23.6435542176
 31
0.0
  0
LINE
  5
106
330
1F
100
AcDbEntity
  8
0
  6
Continuous
 62
     7
370
    25
100
AcDbLine
 10
411.0563908261
 20
-121.5070756666
 30
0.0
 11
447.8259434478
 21
-100.2804647592
 31
0.0
  0
LINE
  5
107
330
1F
100
AcDbEntity
  8
0
  6
Continuous
 62
     7
370
    25
100
AcDbLine
 10
286.0036001015
 20
-142.3857724065
 30
0.0
 11
286.0036001015
 21
-184.8458946246
 31
0.0
  0
LINE
  5
108
330
1F
100
AcDbEntity
  8
0
  6
Continuous
 62
     7
370
    25
100
AcDbLine
 10
399.0036001015
 20
-184.8458946246
 30
0.0
 11
399.0036001015
 21
-142.3857724065
 31
0.0
  0
LINE
  5
109
330
1F
100
AcDbEntity
  8
0
  6
Continuous
 62
     7
370
    25
100
AcDbLine
 10
376.2089285815
 20
-26.3935301942
 30
0.0
 11
365.4487521483
 21
-20.1818125595
 31
0.0
  0
LINE
  5
10A
330
1F
100
AcDbEntity
  8
0
  6
Continuous
 62
     7
370
    25
100
AcDbLine
 10
358.4493210199
 20
-32.3064966328
 30
0.0
 11
369.2096394994
 21
-38.5182962692
 31
0.0
  0
LINE
  5
10B
330
1F
100
AcDbEntity
  8
0
  6
Continuous
 62
     7
370
    25
100
AcDbLine
 10
306.205383927
 20
-147.6432875099
 30
0.0
 11
295.4451808108
 21
-141.4315544714
 31
0.0
  0
LINE
  5
10C
330
1F
100
AcDbEntity
  8
0
  6
Continuous
 62
     7
370
    25
100
AcDbLine
 10
288.4457496824
 20
-153.5562385447
 30
0.0
 11
299.2058578491
 21
-159.7679167701
 31
0.0
  0
SPLINE
  5
10D
330
1F
100
AcDbEntity
  8
0
  6
Continuous
 62
     7
370
    25
100
AcDbSpline
210
0.0
220
0.0
230
1.0
 70
     8
 71
     3
 72
    35
 73
    31
 74
     0
 42
0.00000001
 43
0.00000001
 40
0.0
 40
0.0
 40
0.0
 40
0.0
 40
0.0340526306143882
 40
0.0711385775395619
 40
0.1072599427933698
 40
0.1426856756036029
 40
0.1776586472078683
 40
0.2123892065712264
 40
0.247051982534438
 40
0.2817837407231081
 40
0.3166590516895674
 40
0.351738711234913
 40
0.387059250994914
 40
0.4226250011246023
 40
0.4584132845925903
 40
0.4943806681278503
 40
0.5304700758404258
 40
0.5666108458728534
 40
0.6027283888391476
 40
0.6387755323252119
 40
0.6747262171908432
 40
0.7105828403981171
 40
0.7463826417768747
 40
0.7822026915823415
 40
0.8181578092798416
 40
0.8543651202100878
 40
0.891014892224227
 40
0.9283373726198897
 40
0.9665982109598336
 40
1.0
 40
1.0
 40
1.0
 40
1.0
 10
399.0036137379627
 20
-142.4177093777849
 30
0.0
 10
399.0037720973676
 20
-142.4094959046976
 30
0.0
 10
399.0041029224053
 20
-142.3923373245366
 30
0.0
 10
399.0200530584394
 20
-142.1776228605958
 30
0.0
 10
399.0622285888292
 20
-141.8219792681453
 30
0.0
 10
399.1403123760491
 20
-141.3240686384642
 30
0.0
 10
399.2627838939383
 20
-140.69650518666
 30
0.0
 10
399.4372208228727
 20
-139.9470373734108
 30
0.0
 10
399.669958154456
 20
-139.0860207592544
 30
0.0
 10
399.9659222426376
 20
-138.1250206868047
 30
0.0
 10
400.3284040976197
 20
-137.0773618571562
 30
0.0
 10
400.758884510762
 20
-135.9578898187451
 30
0.0
 10
401.2570013941025
 20
-134.7825953464912
 30
0.0
 10
401.820354219158
 20
-133.5686315420312
 30
0.0
 10
402.4443580801431
 20
-132.3341488921921
 30
0.0
 10
403.1222194766827
 20
-131.0978939343654
 30
0.0
 10
403.8449528219848
 20
-129.8788098288872
 30
0.0
 10
404.6014876751052
 20
-128.695551613061
 30
0.0
 10
405.3790407491185
 20
-127.5657045313758
 30
0.0
 10
406.163561592927
 20
-126.5051331342546
 30
0.0
 10
406.9402088321067
 20
-125.5274770370699
 30
0.0
 10
407.6936543185385
 20
-124.6439782689676
 30
0.0
 10
408.4084755335164
 20
-123.8632702634591
 30
0.0
 10
409.069410680006
 20
-123.1913626285529
 30
0.0
 10
409.6615042933162
 20
-122.6318077946932
 30
0.0
 10
410.1700843891164
 20
-122.1857729566317
 30
0.0
 10
410.5827777467478
 20
-121.8510300179349
 30
0.0
 10
410.8825250257411
 20
-121.6265867997018
 30
0.0
 10
411.0641084331498
 20
-121.5031251956466
 30
0.0
 10
411.0764048765978
 20
-121.4957796244746
 30
0.0
 10
411.0821362211635
 20
-121.4923558703138
 30
0.0
  0
SPLINE
  5
10E
330
1F
100
AcDbEntity
  8
0
  6
Continuous
 62
     7
370
    25
100
AcDbSpline
210
0.0
220
0.0
230
1.0
 70
     8
 71
     3
 72
    41
 73
    37
 74
     0
 42
0.00000001
 43
0.00000001
 40
0.0
 40
0.0
 40
0.0
 40
0.0
 40
0.0194128403075088
 40
0.049323290592944
 40
0.0793008555329912
 40
0.1094147269899884
 40
0.1396175336813936
 40
0.1698627069654422
 40
0.2001050055903041
 40
0.2303166006270683
 40
0.260477547803447
 40
0.2905755685203349
 40
0.3206053119543661
 40
0.3505673767299719
 40
0.3804672671481462
 40
0.4103143979020635
 40
0.4401212067951017
 40
0.469902394491244
 40
0.499674283817994
 40
0.5294542755305992
 40
0.5592574378733846
 40
0.5890988877170844
 40
0.6189966562817087
 40
0.6489681248252164
 40
0.6790294653961254
 40
0.7091949708177213
 40
0.7394762396682989
 40
0.7698811935951736
 40
0.8004129264619525
 40
0.8310684231335799
 40
0.861837243883842
 40
0.8927003467754663
 40
0.9236293018353168
 40
0.9545744078933188
 40
0.9854840650314838
 40
1.0
 40
1.0
 40
1.0
 40
1.0
 10
354.5609824321144
 20
-23.64355421756498
 30
0.0
 10
353.7889093118948
 20
-24.09674847063753
 30
0.0
 10
351.827259895098
 20
-25.24820449073884
 30
0.0
 10
348.7320085142828
 20
-27.22231199359829
 30
0.0
 10
345.2839977711061
 20
-29.58867494533901
 30
0.0
 10
341.8965451977226
 20
-32.09527903594175
 30
0.0
 10
338.5717709679886
 20
-34.73544456393768
 30
0.0
 10
335.3174797285537
 20
-37.50222470679082
 30
0.0
 10
332.1400722313985
 20
-40.3875703712841
 30
0.0
 10
329.04493773514
 20
-43.38392516987452
 30
0.0
 10
326.0362081858115
 20
-46.48430795743894
 30
0.0
 10
323.11725453178
 20
-49.68221870917755
 30
0.0
 10
320.2908137497584
 20
-52.97167450695808
 30
0.0
 10
317.5591435048808
 20
-56.34722378535276
 30
0.0
 10
314.9241676104999
 20
-59.80391910007179
 30
0.0
 10
312.3876064302502
 20
-63.33727257350599
 30
0.0
 10
309.9510868759263
 20
-66.94320194434802
 30
0.0
 10
307.6162324400165
 20
-70.61797471783748
 30
0.0
 10
305.3847357052545
 20
-74.35815365927317
 30
0.0
 10
303.2584866183317
 20
-78.16041982095965
 30
0.0
 10
301.2396033268607
 20
-82.02150689933269
 30
0.0
 10
299.3303820605094
 20
-85.93828268689896
 30
0.0
 10
297.5332756631537
 20
-89.90783558743429
 30
0.0
 10
295.8509430579626
 20
-93.92743176277656
 30
0.0
 10
294.2863495713713
 20
-97.99430608113063
 30
0.0
 10
292.8427931982146
 20
-102.1055683050538
 30
0.0
 10
291.5239227022648
 20
-106.2580871566338
 30
0.0
 10
290.3337450078488
 20
-110.4483488835478
 30
0.0
 10
289.2766053961972
 20
-114.6722913787309
 30
0.0
 10
288.3571659188662
 20
-118.9251157576884
 30
0.0
 10
287.5802418094611
 20
-123.2011027721568
 30
0.0
 10
286.9509750637143
 20
-127.4934066727968
 30
0.0
 10
286.4735724973568
 20
-131.7935063182051
 30
0.0
 10
286.1552074328222
 20
-136.0910390362869
 30
0.0
 10
286.0188887039768
 20
-139.6219620546433
 30
0.0
 10
286.0073025156338
 20
-141.716465278536
 30
0.0
 10
286.0036001014501
 20
-142.3857724065085
 30
0.0
  0
LWPOLYLINE
  5
10F
330
1F
100
AcDbEntity
  8
0
  6
Continuous
 62
     7
370
    25
100
AcDbPolyline
 90
      111
 70
   128
 43
0.0
 10
379.6267061137
 20
-28.2851748757
 10
379.6918629123
 20
-30.9565560292
 10
379.88712078
 20
-33.694452131
 10
380.2118428262
 20
-36.489932733
 10
380.6649698752
 20
-39.3338795586
 10
381.2450239207
 20
-42.2170162443
 10
381.9501129469
 20
-45.1299385975
 10
382.7779371001
 20
-48.0631452711
 10
383.7257961898
 20
-51.0070687543
 10
384.7905984968
 20
-53.9521065809
 10
385.9688708572
 20
-56.8886526495
 10
387.2567699916
 20
-59.8071285572
 10
388.6500950406
 20
-62.6980148421
 10
390.1443012675
 20
-65.5518820343
 10
391.7345148822
 20
-68.3594214119
 10
393.4155489384
 20
-71.1114753652
 10
395.1819202525
 20
-73.7990672661
 10
397.0278672883
 20
-76.4134307486
 10
398.9473689502
 20
-78.9460383022
 10
400.934164223
 20
-81.3886290877
 10
402.9817725932
 20
-83.7332358815
 10
405.0835151881
 20
-85.9722110636
 10
407.2325365601
 20
-88.0982515623
 10
409.4218270482
 20
-90.1044226755
 10
411.6442456419
 20
-91.9841806899
 10
413.8925432736
 20
-93.7313942257
 10
416.1593864638
 20
-95.3403642354
 10
418.4373812412
 20
-96.8058425933
 10
420.7190972603
 20
-98.1230492136
 10
422.9970920377
 20
-99.2876876421
 10
425.263935228
 20
-100.2959590703
 10
427.5122328597
 20
-101.1445747263
 10
429.7346514534
 20
-101.8307666023
 10
431.9239419415
 20
-102.3522964831
 10
434.0729633135
 20
-102.7074632465
 10
436.1747059084
 20
-102.8951084124
 10
438.2223142786
 20
-102.9146199212
 10
440.2091095513
 20
-102.7659341305
 10
442.1286112133
 20
-102.4495360224
 10
443.9745582491
 20
-101.9664576218
 10
445.7409295631
 20
-101.3182746301
 10
447.4219636194
 20
-100.5071012853
 10
449.0121772341
 20
-99.5355834664
 10
450.506383461
 20
-98.4068900625
 10
451.89970851
 20
-97.1247026369
 10
453.1876076443
 20
-95.6932034186
 10
454.3658800048
 20
-94.1170616604
 10
455.4306823118
 20
-92.401418409
 10
456.3785414015
 20
-90.5518697364
 10
457.2063655547
 20
-88.5744484856
 10
457.9114545809
 20
-86.4756045939
 10
458.4915086264
 20
-84.2621840538
 10
458.9446356754
 20
-81.941406583
 10
459.2693577216
 20
-79.5208420753
 10
459.4646155893
 20
-77.0083859089
 10
459.5297723878
 20
-74.4122331937
 10
459.4646155893
 20
-71.7408520401
 10
459.2693577216
 20
-69.0029559383
 10
458.9446356754
 20
-66.2074753363
 10
458.4915086264
 20
-63.3635285108
 10
457.9114545809
 20
-60.4803918251
 10
457.2063655547
 20
-57.5674694718
 10
456.3785414015
 20
-54.6342627983
 10
455.4306823118
 20
-51.690339315
 10
454.3658800048
 20
-48.7453014885
 10
453.1876076443
 20
-45.8087554199
 10
451.89970851
 20
-42.8902795122
 10
450.506383461
 20
-39.9993932272
 10
449.0121772341
 20
-37.1455260351
 10
447.4219636194
 20
-34.3379866574
 10
445.7409295631
 20
-31.5859327042
 10
443.9745582491
 20
-28.8983408032
 10
442.1286112133
 20
-26.2839773208
 10
440.2091095513
 20
-23.7513697671
 10
438.2223142786
 20
-21.3087789817
 10
436.1747059084
 20
-18.9641721879
 10
434.0729633135
 20
-16.7251970058
 10
431.9239419415
 20
-14.5991565071
 10
429.7346514534
 20
-12.5929853939
 10
427.5122328597
 20
-10.7132273794
 10
425.263935228
 20
-8.9660138436
 10
422.9970920377
 20
-7.3570438339
 10
420.7190972603
 20
-5.891565476
 10
418.4373812412
 20
-4.5743588557
 10
416.1593864638
 20
-3.4097204273
 10
413.8925432736
 20
-2.4014489991
 10
411.6442456419
 20
-1.5528333431
 10
409.4218270482
 20
-0.866641467
 10
407.2325365601
 20
-0.3451115863
 10
405.0835151881
 20
0.0100551771
 10
402.9817725932
 20
0.197700343
 10
400.934164223
 20
0.2172118518
 10
398.9473689502
 20
0.0685260611
 10
397.0278672883
 20
-0.2478720469
 10
395.1819202525
 20
-0.7309504475
 10
393.4155489384
 20
-1.3791334393
 10
391.7345148822
 20
-2.1903067841
 10
390.1443012675
 20
-3.161824603
 10
388.6500950406
 20
-4.2905180069
 10
387.2567699916
 20
-5.5727054324
 10
385.9688708572
 20
-7.0042046508
 10
384.7905984968
 20
-8.580346409
 10
383.7257961898
 20
-10.2959896603
 10
382.7779371001
 20
-12.145538333
 10
381.9501129469
 20
-14.1229595838
 10
381.2450239207
 20
-16.2218034754
 10
380.6649698752
 20
-18.4352240156
 10
380.2118428262
 20
-20.7560014863
 10
379.88712078
 20
-23.1765659941
 10
379.6918629123
 20
-25.6890221605
 10
379.6267061137
 20
-28.2851748757
  0
LWPOLYLINE
  5
110
330
1F
100
AcDbEntity
  8
0
  6
Continuous
 62
     7
370
    25
100
AcDbPolyline
 90
       99
 70
   128
 43
0.0
 10
387.7584340974
 20
-32.9795215187
 10
387.8238112997
 20
-30.6630452494
 10
388.0196742578
 20
-28.4315707891
 10
388.3452181288
 20
-26.2942677451
 10
388.799105183
 20
-24.2599187539
 10
389.3794703012
 20
-22.336883392
 10
390.0839286386
 20
-20.5330638241
 10
390.9095854249
 20
-18.8558723318
 10
391.8530478591
 20
-17.3122008546
 10
392.9104390517
 20
-15.9083926698
 10
394.0774139557
 20
-14.6502163264
 10
395.3491772206
 20
-13.5428419407
 10
396.7205028986
 20
-12.5908199517
 10
398.1857559182
 20
-11.7980624219
 10
399.7389152405
 20
-11.1678269621
 10
401.3735986007
 20
-10.702703345
 10
403.0830887342
 20
-10.4046028632
 10
404.8603609793
 20
-10.2747504757
 10
406.6981121433
 20
-10.3136797736
 10
408.5887905123
 20
-10.5212307882
 10
410.5246268834
 20
-10.8965506479
 10
412.4976664897
 20
-11.4380970828
 10
414.4998016883
 20
-12.1436447624
 10
416.5228052762
 20
-13.0102944401
 10
418.5583642976
 20
-14.0344848663
 10
420.598114204
 20
-15.212007423
 10
422.6336732254
 20
-16.5380234173
 10
424.6566768132
 20
-18.0070839652
 10
426.6588120118
 20
-19.6131523817
 10
428.6318516181
 20
-21.3496289872
 10
430.5676879893
 20
-23.2093782269
 10
432.4583663583
 20
-25.1847579921
 10
434.2961175222
 20
-27.2676510238
 10
436.0733897674
 20
-29.4494982677
 10
437.7828799009
 20
-31.7213340455
 10
439.4175632611
 20
-34.0738228965
 10
440.9707225834
 20
-36.4972979397
 10
442.435975603
 20
-38.9818005961
 10
443.8073012809
 20
-41.5171215114
 10
445.0790645459
 20
-44.0928425082
 10
446.2460394498
 20
-46.6983793963
 10
447.3034306425
 20
-49.3230254659
 10
448.2468930767
 20
-51.9559954833
 10
449.072549863
 20
-54.5864700098
 10
449.7770082004
 20
-57.2036398614
 10
450.3573733186
 20
-59.7967505259
 10
450.8112603728
 20
-62.3551463552
 10
451.1368042437
 20
-64.8683143521
 10
451.3326672018
 20
-67.3259273703
 10
451.3980444042
 20
-69.7178865507
 10
451.3326672018
 20
-72.03436282
 10
451.1368042437
 20
-74.2658372802
 10
450.8112603728
 20
-76.4031403243
 10
450.3573733186
 20
-78.4374893154
 10
449.7770082004
 20
-80.3605246774
 10
449.072549863
 20
-82.1643442452
 10
448.2468930767
 20
-83.8415357376
 10
447.3034306425
 20
-85.3852072147
 10
446.2460394498
 20
-86.7890153995
 10
445.0790645459
 20
-88.047191743
 10
443.8073012809
 20
-89.1545661287
 10
442.435975603
 20
-90.1065881177
 10
440.9707225834
 20
-90.8993456475
 10
439.4175632611
 20
-91.5295811073
 10
437.7828799009
 20
-91.9947047244
 10
436.0733897674
 20
-92.2928052061
 10
434.2961175222
 20
-92.4226575937
 10
432.4583663583
 20
-92.3837282958
 10
430.5676879893
 20
-92.1761772811
 10
428.6318516181
 20
-91.8008574215
 10
426.6588120118
 20
-91.2593109866
 10
424.6566768132
 20
-90.5537633069
 10
422.6336732254
 20
-89.6871136293
 10
420.598114204
 20
-88.6629232031
 10
418.5583642976
 20
-87.4854006464
 10
416.5228052762
 20
-86.159384652
 10
414.4998016883
 20
-84.6903241041
 10
412.4976664897
 20
-83.0842556876
 10
410.5246268834
 20
-81.3477790821
 10
408.5887905123
 20
-79.4880298425
 10
406.6981121433
 20
-77.5126500772
 10
404.8603609793
 20
-75.4297570455
 10
403.0830887342
 20
-73.2479098017
 10
401.3735986007
 20
-70.9760740239
 10
399.7389152405
 20
-68.6235851728
 10
398.1857559182
 20
-66.2001101297
 10
396.7205028986
 20
-63.7156074733
 10
395.3491772206
 20
-61.180286558
 10
394.0774139557
 20
-58.6045655612
 10
392.9104390517
 20
-55.999028673
 10
391.8530478591
 20
-53.3743826034
 10
390.9095854249
 20
-50.7414125861
 10
390.0839286386
 20
-48.1109380596
 10
389.3794703012
 20
-45.4937682079
 10
388.799105183
 20
-42.9006575435
 10
388.3452181288
 20
-40.3422617142
 10
388.0196742578
 20
-37.8290937173
 10
387.8238112997
 20
-35.3714806991
 10
387.7584340974
 20
-32.9795215187
  0
SPLINE
  5
111
330
1F
100
AcDbEntity
  8
0
  6
Continuous
 62
     7
370
    25
100
AcDbSpline
210
0.0
220
0.0
230
1.0
 70
     8
 71
     3
 72
    27
 73
    23
 74
     0
 42
0.00000001
 43
0.00000001
 40
0.0
 40
0.0
 40
0.0
 40
0.0
 40
0.0172555386461425
 40
0.0709138673237341
 40
0.1247509005505751
 40
0.1785860031370226
 40
0.2321434865726847
 40
0.2857005426196775
 40
0.3389563887107024
 40
0.3922139126857191
 40
0.4456165663576528
 40
0.4990203766652865
 40
0.5527880457108858
 40
0.6065545440403441
 40
0.6603387127021726
 40
0.7141211700363456
 40
0.7675495527728723
 40
0.8209783409610996
 40
0.8742341289063106
 40
0.9274917388109067
 40
0.9810202178241642
 40
1.0
 40
1.0
 40
1.0
 40
1.0
 10
369.2210158329692
 20
-38.49934128246294
 30
0.0
 10
369.2866633926142
 20
-38.5441195421481
 30
0.0
 10
369.5564505276474
 20
-38.72814159045507
 30
0.0
 10
370.1288491059476
 20
-38.87729078981886
 30
0.0
 10
370.9115646023758
 20
-38.92560050514427
 30
0.0
 10
371.7427607327754
 20
-38.77611899699232
 30
0.0
 10
372.58652598368
 20
-38.43954662689908
 30
0.0
 10
373.4187429612617
 20
-37.93053787995365
 30
0.0
 10
374.2152106851935
 20
-37.25811047936139
 30
0.0
 10
374.9586324358692
 20
-36.44902817416723
 30
0.0
 10
375.6295026129185
 20
-35.52077399452694
 30
0.0
 10
376.2177068162074
 20
-34.50320499589438
 30
0.0
 10
376.7061870805748
 20
-33.42424585158124
 30
0.0
 10
377.0888915886154
 20
-32.31773296801535
 30
0.0
 10
377.3532552892445
 20
-31.21932721278176
 30
0.0
 10
377.4985030068664
 20
-30.1632281333824
 30
0.0
 10
377.5184943795019
 20
-29.18300833341003
 30
0.0
 10
377.4178832663482
 20
-28.30426423217133
 30
0.0
 10
377.1967223477612
 20
-27.54976324961087
 30
0.0
 10
376.8550006424127
 20
-26.94620410968557
 30
0.0
 10
376.517352173507
 20
-26.56505082543265
 30
0.0
 10
376.2640058449963
 20
-26.44504491791805
 30
0.0
 10
376.1976898411187
 20
-26.41363213891762
 30
0.0
  0
LWPOLYLINE
  5
112
330
1F
100
AcDbEntity
  8
0
  6
Continuous
 62
     7
370
    25
100
AcDbPolyline
 90
      111
 70
   128
 43
0.0
 10
302.5520669644
 20
-161.7823654656
 10
304.8980092819
 20
-160.5033102307
 10
307.3666132202
 20
-159.3036554465
 10
309.9498267064
 20
-158.1873141375
 10
312.6392238351
 20
-157.157927577
 10
315.4260323518
 20
-156.21885341
 10
318.3011622663
 20
-155.3731547013
 10
321.2552355025
 20
-154.6235899441
 10
324.2786164875
 20
-153.9726040631
 10
327.361443581
 20
-153.4223204388
 10
330.4936612417
 20
-152.9745339821
 10
333.6650528267
 20
-152.6307052792
 10
336.8652739157
 20
-152.391955828
 10
340.0838860529
 20
-152.2590643795
 10
343.3103907943
 20
-152.232464398
 10
346.5342639522
 20
-152.3122426471
 10
349.7449899224
 20
-152.4981389068
 10
352.9320959841
 20
-152.7895468221
 10
356.0851864599
 20
-153.1855158809
 10
359.1939766239
 20
-153.6847545146
 10
362.2483262488
 20
-154.2856343103
 10
365.238272681
 20
-154.9861953232
 10
368.1540633367
 20
-155.7841524688
 10
370.9861875129
 20
-156.6769029767
 10
373.7254074091
 20
-157.6615348804
 10
376.3627882593
 20
-158.7348365153
 10
378.8897274756
 20
-159.8933069945
 10
381.2979827072
 20
-161.133167628
 10
383.5796987263
 20
-162.4503742483
 10
385.7274330494
 20
-163.8406304011
 10
387.7341802137
 20
-165.2994013598
 10
389.5933946269
 20
-166.8219289168
 10
391.299011918
 20
-168.4032469035
 10
392.8454687181
 20
-170.0381973895
 10
394.2277208064
 20
-171.7214475061
 10
395.4412595639
 20
-173.4475068412
 10
396.4821266795
 20
-175.2107453481
 10
397.346927061
 20
-177.0054117092
 10
398.0328399092
 20
-178.825652096
 10
398.537627919
 20
-180.6655292625
 10
398.8596445769
 20
-182.519041912
 10
398.9978395315
 20
-184.3801442713
 10
398.9517620195
 20
-186.2427658116
 10
398.7215623362
 20
-188.1008310483
 10
398.3079913451
 20
-189.948279359
 10
397.7123980288
 20
-191.7790847512
 10
396.936725089
 20
-193.5872755183
 10
395.9835026095
 20
-195.3669537178
 10
394.855839804
 20
-197.1123144094
 10
393.5574148741
 20
-198.8176645893
 10
392.092463012
 20
-200.4774417596
 10
390.4657625863
 20
-202.0862320722
 10
388.6826195556
 20
-203.6387879875
 10
386.7488501619
 20
-205.1300453908
 10
384.6707619589
 20
-206.5551401104
 10
382.4551332385
 20
-207.9094237836
 10
380.109190921
 20
-209.1884790184
 10
377.6405869827
 20
-210.3881338026
 10
375.0573734965
 20
-211.5044751116
 10
372.3679763678
 20
-212.5338616721
 10
369.5811678511
 20
-213.4729358391
 10
366.7060379366
 20
-214.3186345479
 10
363.7519647004
 20
-215.068199305
 10
360.7285837154
 20
-215.719185186
 10
357.6457566219
 20
-216.2694688103
 10
354.5135389612
 20
-216.7172552671
 10
351.3421473762
 20
-217.0610839699
 10
348.1419262872
 20
-217.2998334212
 10
344.92331415
 20
-217.4327248697
 10
341.6968094086
 20
-217.4593248511
 10
338.4729362507
 20
-217.379546602
 10
335.2622102805
 20
-217.1936503423
 10
332.0751042188
 20
-216.902242427
 10
328.922013743
 20
-216.5062733682
 10
325.813223579
 20
-216.0070347346
 10
322.7588739541
 20
-215.4061549388
 10
319.7689275219
 20
-214.705593926
 10
316.8531368662
 20
-213.9076367804
 10
314.02101269
 20
-213.0148862724
 10
311.2817927938
 20
-212.0302543687
 10
308.6444119436
 20
-210.9569527339
 10
306.1174727273
 20
-209.7984822547
 10
303.7092174957
 20
-208.5586216211
 10
301.4275014766
 20
-207.2414150008
 10
299.2797671535
 20
-205.851158848
 10
297.2730199892
 20
-204.3923878893
 10
295.413805576
 20
-202.8698603324
 10
293.7081882849
 20
-201.2885423456
 10
292.1617314848
 20
-199.6535918596
 10
290.7794793965
 20
-197.970341743
 10
289.565940639
 20
-196.2442824079
 10
288.5250735234
 20
-194.481043901
 10
287.6602731419
 20
-192.6863775399
 10
286.9743602937
 20
-190.8661371532
 10
286.4695722839
 20
-189.0262599866
 10
286.147555626
 20
-187.1727473372
 10
286.0093606714
 20
-185.3116449778
 10
286.0554381834
 20
-183.4490234376
 10
286.2856378667
 20
-181.5909582008
 10
286.6992088578
 20
-179.7435098902
 10
287.2948021741
 20
-177.9127044979
 10
288.0704751139
 20
-176.1045137308
 10
289.0236975934
 20
-174.3248355313
 10
290.1513603989
 20
-172.5794748397
 10
291.4497853288
 20
-170.8741246598
 10
292.9147371909
 20
-169.2143474895
 10
294.5414376166
 20
-167.6055571769
 10
296.3245806473
 20
-166.0530012616
 10
298.258350041
 20
-164.5617438583
 10
300.336438244
 20
-163.1366491387
 10
302.5520669644
 20
-161.7823654656
  0
LWPOLYLINE
  5
113
330
1F
100
AcDbEntity
  8
0
  6
Continuous
 62
     7
370
    25
100
AcDbPolyline
 90
       99
 70
   128
 43
0.0
 10
310.6837949481
 20
-166.4767121086
 10
308.7104702345
 20
-167.6913711288
 10
306.8760087401
 20
-168.9765217657
 10
305.1879486608
 20
-170.3268830597
 10
303.6532265974
 20
-171.7369060865
 10
302.2781490521
 20
-173.200796759
 10
301.0683665135
 20
-174.7125396366
 10
300.0288502376
 20
-176.2659226434
 10
299.1638718196
 20
-177.8545625955
 10
298.4769856415
 20
-179.4719314305
 10
297.9710142659
 20
-181.111383033
 10
297.6480368377
 20
-182.7661805447
 10
297.5093805405
 20
-184.4295240476
 10
297.5556151426
 20
-186.0945785065
 10
297.7865506563
 20
-187.7545018556
 10
298.2012381179
 20
-189.4024731136
 10
298.7979734877
 20
-191.0317204132
 10
299.5743046521
 20
-192.6355488278
 10
300.5270414998
 20
-194.2073678824
 10
301.6522690307
 20
-195.7407186354
 10
302.9453634436
 20
-197.2293002196
 10
304.4010111362
 20
-198.6669957339
 10
306.0132305398
 20
-200.0478973792
 10
307.775396699
 20
-201.3663307343
 10
309.6802684953
 20
-202.6168780739
 10
311.7200184016
 20
-203.7944006305
 10
313.8862646483
 20
-204.8940597116
 10
316.1701056647
 20
-205.911336582
 10
318.5621566583
 20
-206.8420510329
 10
321.0525881784
 20
-207.6823785589
 10
323.6311665077
 20
-208.428866074
 10
326.2872957148
 20
-209.0784461009
 10
329.010061195
 20
-209.628449376
 10
331.7882745209
 20
-210.0766158177
 10
334.6105194181
 20
-210.4211038141
 10
337.4651986768
 20
-210.66049779
 10
340.3405818077
 20
-210.7938140243
 10
343.2248532448
 20
-210.820504692
 10
346.106160898
 20
-210.7404601154
 10
348.9726648561
 20
-210.5540092148
 10
351.8125860396
 20
-210.261918157
 10
354.614254603
 20
-209.8653872068
 10
357.3661578894
 20
-209.3660457949
 10
360.0569877379
 20
-208.7659458223
 10
362.6756869513
 20
-208.0675532284
 10
365.211494733
 20
-207.2737378584
 10
367.6539909048
 20
-206.3877616697
 10
369.993138726
 20
-205.4132653287
 10
372.2193261366
 20
-204.3542532497
 10
374.3234052548
 20
-203.2150771406
 10
376.2967299684
 20
-202.0004181203
 10
378.1311914628
 20
-200.7152674834
 10
379.8192515421
 20
-199.3649061895
 10
381.3539736055
 20
-197.9548831627
 10
382.7290511508
 20
-196.4909924901
 10
383.9388336894
 20
-194.9792496125
 10
384.9783499653
 20
-193.4258666057
 10
385.8433283833
 20
-191.8372266537
 10
386.5302145614
 20
-190.2198578186
 10
387.036185937
 20
-188.5804062161
 10
387.3591633652
 20
-186.9256087045
 10
387.4978196624
 20
-185.2622652015
 10
387.4515850603
 20
-183.5972107426
 10
387.2206495466
 20
-181.9372873936
 10
386.805962085
 20
-180.2893161355
 10
386.2092267152
 20
-178.6600688359
 10
385.4328955508
 20
-177.0562404213
 10
384.4801587031
 20
-175.4844213667
 10
383.3549311722
 20
-173.9510706137
 10
382.0618367593
 20
-172.4624890296
 10
380.6061890667
 20
-171.0247935152
 10
378.9939696631
 20
-169.64389187
 10
377.2318035039
 20
-168.3254585148
 10
375.3269317076
 20
-167.0749111753
 10
373.2871818013
 20
-165.8973886186
 10
371.1209355546
 20
-164.7977295375
 10
368.8370945382
 20
-163.7804526671
 10
366.4450435446
 20
-162.8497382163
 10
363.9546120245
 20
-162.0094106902
 10
361.3760336952
 20
-161.2629231751
 10
358.7199044881
 20
-160.6133431482
 10
355.9971390079
 20
-160.0633398732
 10
353.218925682
 20
-159.6151734314
 10
350.3966807848
 20
-159.2706854351
 10
347.5420015261
 20
-159.0312914591
 10
344.6666183952
 20
-158.8979752248
 10
341.7823469581
 20
-158.8712845571
 10
338.9010393049
 20
-158.9513291337
 10
336.0345353468
 20
-159.1377800343
 10
333.1946141633
 20
-159.4298710921
 10
330.3929455999
 20
-159.8264020423
 10
327.6410423135
 20
-160.3257434542
 10
324.950212465
 20
-160.9258434269
 10
322.3315132516
 20
-161.6242360207
 10
319.7957054699
 20
-162.4180513907
 10
317.3532092981
 20
-163.3040275794
 10
315.0140614769
 20
-164.2785239205
 10
312.7878740663
 20
-165.3375359995
 10
310.6837949481
 20
-166.4767121086
  0
SPLINE
  5
114
330
1F
100
AcDbEntity
  8
0
  6
Continuous
 62
     7
370
    25
100
AcDbSpline
210
0.0
220
0.0
230
1.0
 70
     8
 71
     3
 72
    22
 73
    18
 74
     0
 42
0.00000001
 43
0.00000001
 40
0.0
 40
0.0
 40
0.0
 40
0.0
 40
0.0712167029420916
 40
0.1424349381584939
 40
0.2136349545172777
 40
0.2848371906042592
 40
0.3563781828367347
 40
0.4279186540196972
 40
0.4996973847230538
 40
0.5714735413819536
 40
0.6428795596980084
 40
0.7142850081941025
 40
0.7852888656845483
 40
0.8562949602296019
 40
0.9274945503075205
 40
0.9986956824808607
 40
1.0
 40
1.0
 40
1.0
 40
1.0
 10
302.5520669644101
 20
-159.3327430299187
 30
0.0
 10
302.8308892743692
 20
-159.1579142887033
 30
0.0
 10
303.3885398933331
 20
-158.8082530447167
 30
0.0
 10
304.2224070038597
 20
-158.1090532661546
 30
0.0
 10
305.021554719327
 20
-157.3013467677973
 30
0.0
 10
305.7647503473227
 20
-156.39487418834
 30
0.0
 10
306.4240619614181
 20
-155.4124931009314
 30
0.0
 10
306.9807721199674
 20
-154.3790001383468
 30
0.0
 10
307.4084757198814
 20
-153.3208898017576
 30
0.0
 10
307.6960305512829
 20
-152.2682415412092
 30
0.0
 10
307.8259491546989
 20
-151.2514969042894
 30
0.0
 10
307.8014717799086
 20
-150.2984690383114
 30
0.0
 10
307.6166743270996
 20
-149.4391177402219
 30
0.0
 10
307.2900218487249
 20
-148.6862420105087
 30
0.0
 10
306.8127764098407
 20
-148.0927004838382
 30
0.0
 10
306.4406855822892
 20
-147.7422923706999
 30
0.0
 10
306.2087354490594
 20
-147.6466008235029
 30
0.0
 10
306.2045628437778
 20
-147.6448794058444
 30
0.0
  0
SPLINE
  5
115
330
1F
100
AcDbEntity
  8
0
  6
Continuous
 62
     7
370
    25
100
AcDbSpline
210
0.0
220
0.0
230
1.0
 70
     8
 71
     3
 72
    12
 73
     8
 74
     0
 42
0.00000001
 43
0.00000001
 40
0.0
 40
0.0
 40
0.0
 40
0.0
 40
0.0658300308120611
 40
0.2805507762232948
 40
0.4959857799883086
 40
0.7114131786294625
 40
1.0
 40
1.0
 40
1.0
 40
1.0
 10
299.2169816047875
 20
-159.749443719581
 30
0.0
 10
299.2689123618206
 20
-159.7862405824372
 30
0.0
 10
299.4902279835173
 20
-159.9430594128332
 30
0.0
 10
299.9800144717777
 20
-160.0480380502052
 30
0.0
 10
300.6761537615834
 20
-160.047130358378
 30
0.0
 10
301.5318040685084
 20
-159.8544527910879
 30
0.0
 10
302.1805882371338
 20
-159.5226980688261
 30
0.0
 10
302.5520669644101
 20
-159.3327430299187
 30
0.0
  0
LWPOLYLINE
  5
116
330
1F
100
AcDbEntity
  8
0
  6
Continuous
 62
     7
370
    25
100
AcDbPolyline
 90
       39
 70
   128
 43
0.0
 10
356.9992891158
 20
-29.1015829875
 10
357.0667972197
 20
-28.121823986
 10
357.2674800865
 20
-27.0908470582
 10
357.5958636106
 20
-26.0367745672
 10
358.0429903456
 20
-24.9883588628
 10
358.5966638396
 20
-23.9741979924
 10
359.2417813231
 20
-23.0219556209
 10
359.9607456729
 20
-22.1576064377
 10
360.7339454156
 20
-21.4047276354
 10
361.5402896779
 20
-20.7838557852
 10
362.3577834903
 20
-20.3119266526
 10
363.1641277526
 20
-20.0018132342
 10
363.9373274953
 20
-19.8619746155
 10
364.656291845
 20
-19.8962252296
 10
365.3014093286
 20
-20.103630809
 10
365.8550828226
 20
-20.4785338702
 10
366.3022095576
 20
-21.0107080349
 10
366.6305930817
 20
-21.6856369792
 10
366.8312759484
 20
-22.484910401
 10
366.8987840524
 20
-23.3867262048
 10
366.8312759484
 20
-24.3664852063
 10
366.6305930817
 20
-25.3974621341
 10
366.3022095576
 20
-26.451534625
 10
365.8550828226
 20
-27.4999503294
 10
365.3014093286
 20
-28.5141111998
 10
364.656291845
 20
-29.4663535714
 10
363.9373274953
 20
-30.3307027546
 10
363.1641277526
 20
-31.0835815569
 10
362.3577834903
 20
-31.7044534071
 10
361.5402896779
 20
-32.1763825397
 10
360.7339454156
 20
-32.4864959581
 10
359.9607456729
 20
-32.6263345768
 10
359.2417813231
 20
-32.5920839627
 10
358.5966638396
 20
-32.3846783833
 10
358.0429903456
 20
-32.0097753221
 10
357.5958636106
 20
-31.4776011574
 10
357.2674800865
 20
-30.802672213
 10
357.0667972197
 20
-30.0033987913
 10
356.9992891158
 20
-29.1015829875
  0
LWPOLYLINE
  5
117
330
1F
100
AcDbEntity
  8
0
  6
Continuous
 62
     7
370
    25
100
AcDbPolyline
 90
       33
 70
   128
 43
0.0
 10
358.4135026781
 20
-28.2851748757
 10
358.4814369708
 20
-27.4494611937
 10
358.6826291719
 20
-26.5674282551
 10
359.009347578
 20
-25.672972091
 10
359.4490365841
 20
-24.8004661503
 10
359.9847991881
 20
-23.983440347
 10
360.5960463337
 20
-23.2532925244
 10
361.2592881359
 20
-22.638081854
 10
361.9490365841
 20
-22.1614505367
 10
362.6387850323
 20
-21.8417152468
 10
363.3020268344
 20
-21.6911632322
 10
363.91327398
 20
-21.7155801224
 10
364.4490365841
 20
-21.9140275899
 10
364.8887255901
 20
-22.2788794099
 10
365.2154439963
 20
-22.7961145316
 10
365.4166361974
 20
-23.4458558993
 10
365.48457049
 20
-24.2031343166
 10
365.4166361974
 20
-25.0388479986
 10
365.2154439963
 20
-25.9208809372
 10
364.8887255901
 20
-26.8153371012
 10
364.4490365841
 20
-27.6878430419
 10
363.91327398
 20
-28.5048688453
 10
363.3020268344
 20
-29.2350166678
 10
362.6387850323
 20
-29.8502273383
 10
361.9490365841
 20
-30.3268586556
 10
361.2592881359
 20
-30.6465939454
 10
360.5960463337
 20
-30.79714596
 10
359.9847991881
 20
-30.7727290699
 10
359.4490365841
 20
-30.5742816023
 10
359.009347578
 20
-30.2094297823
 10
358.6826291719
 20
-29.6921946607
 10
358.4814369708
 20
-29.042453293
 10
358.4135026781
 20
-28.2851748757
  0
LWPOLYLINE
  5
118
330
1F
100
AcDbEntity
  8
0
  6
Continuous
 62
     7
370
    25
100
AcDbPolyline
 90
       39
 70
   128
 43
0.0
 10
286.9957177783
 20
-150.3513248994
 10
287.0632258823
 20
-149.3715658979
 10
287.263908749
 20
-148.3405889701
 10
287.5922922731
 20
-147.2865164791
 10
288.0394190081
 20
-146.2381007748
 10
288.5930925021
 20
-145.2239399044
 10
289.2382099857
 20
-144.2716975328
 10
289.9571743354
 20
-143.4073483496
 10
290.7303740781
 20
-142.6544695473
 10
291.5367183404
 20
-142.0335976971
 10
292.3542121528
 20
-141.5616685645
 10
293.1605564151
 20
-141.2515551461
 10
293.9337561578
 20
-141.1117165274
 10
294.6527205076
 20
-141.1459671415
 10
295.2978379911
 20
-141.3533727209
 10
295.8515114851
 20
-141.7282757821
 10
296.2986382201
 20
-142.2604499468
 10
296.6270217442
 20
-142.9353788911
 10
296.827704611
 20
-143.7346523129
 10
296.8952127149
 20
-144.6364681167
 10
296.827704611
 20
-145.6162271182
 10
296.6270217442
 20
-146.647204046
 10
296.2986382201
 20
-147.701276537
 10
295.8515114851
 20
-148.7496922413
 10
295.2978379911
 20
-149.7638531117
 10
294.6527205076
 20
-150.7160954833
 10
293.9337561578
 20
-151.5804446665
 10
293.1605564151
 20
-152.3333234688
 10
292.3542121528
 20
-152.954195319
 10
291.5367183404
 20
-153.4261244516
 10
290.7303740781
 20
-153.73623787
 10
289.9571743354
 20
-153.8760764887
 10
289.2382099857
 20
-153.8418258746
 10
288.5930925021
 20
-153.6344202952
 10
288.0394190081
 20
-153.259517234
 10
287.5922922731
 20
-152.7273430693
 10
287.263908749
 20
-152.052414125
 10
287.0632258823
 20
-151.2531407032
 10
286.9957177783
 20
-150.3513248994
  0
LWPOLYLINE
  5
119
330
1F
100
AcDbEntity
  8
0
  6
Continuous
 62
     7
370
    25
100
AcDbPolyline
 90
       33
 70
   128
 43
0.0
 10
288.4099313407
 20
-149.5349167876
 10
288.4778656333
 20
-148.6992031056
 10
288.6790578344
 20
-147.817170167
 10
289.0057762406
 20
-146.9227140029
 10
289.4454652466
 20
-146.0502080623
 10
289.9812278506
 20
-145.2331822589
 10
290.5924749962
 20
-144.5030344363
 10
291.2557167984
 20
-143.8878237659
 10
291.9454652466
 20
-143.4111924486
 10
292.6352136948
 20
-143.0914571587
 10
293.298455497
 20
-142.9409051441
 10
293.9097026426
 20
-142.9653220343
 10
294.4454652466
 20
-143.1637695018
 10
294.8851542527
 20
-143.5286213219
 10
295.2118726588
 20
-144.0458564435
 10
295.4130648599
 20
-144.6955978112
 10
295.4809991525
 20
-145.4528762285
 10
295.4130648599
 20
-146.2885899105
 10
295.2118726588
 20
-147.1706228491
 10
294.8851542527
 20
-148.0650790132
 10
294.4454652466
 20
-148.9375849538
 10
293.9097026426
 20
-149.7546107572
 10
293.298455497
 20
-150.4847585797
 10
292.6352136948
 20
-151.0999692502
 10
291.9454652466
 20
-151.5766005675
 10
291.2557167984
 20
-151.8963358574
 10
290.5924749962
 20
-152.046887872
 10
289.9812278506
 20
-152.0224709818
 10
289.4454652466
 20
-151.8240235143
 10
289.0057762406
 20
-151.4591716942
 10
288.6790578344
 20
-150.9419365726
 10
288.4778656333
 20
-150.2921952049
 10
288.4099313407
 20
-149.5349167876
  0
LWPOLYLINE
  5
11A
330
1F
100
AcDbEntity
  8
0
  6
Continuous
 62
     1
370
    25
100
AcDbPolyline
 90
       43
 70
   128
 43
0.0
 10
342.857153492
 20
-49.5117857831
 10
342.9223102906
 20
-52.1831669366
 10
343.1175681583
 20
-54.9210630384
 10
343.4422902045
 20
-57.7165436404
 10
343.8954172535
 20
-60.560490466
 10
344.475471299
 20
-63.4436271517
 10
345.1805603252
 20
-66.3565495049
 10
346.0083844784
 20
-69.2897561784
 10
346.9562435681
 20
-72.2336796617
 10
348.0210458751
 20
-75.1787174883
 10
349.1993182355
 20
-78.1152635569
 10
350.4872173699
 20
-81.0337394645
 10
351.8805424189
 20
-83.9246257495
 10
353.3747486458
 20
-86.7784929417
 10
354.9649622605
 20
-89.5860323193
 10
356.6459963167
 20
-92.3380862726
 10
358.4123676308
 20
-95.0256781735
 10
360.2583146666
 20
-97.640041656
 10
362.1778163285
 20
-100.1726492096
 10
364.1646116013
 20
-102.6152399951
 10
366.2122199715
 20
-104.9598467888
 10
368.3139625664
 20
-107.198821971
 10
370.4629839384
 20
-109.3248624697
 10
372.6522744265
 20
-111.3310335829
 10
374.8746930202
 20
-113.2107915973
 10
377.1229906519
 20
-114.9580051331
 10
379.3898338421
 20
-116.5669751428
 10
381.6678286195
 20
-118.0324535007
 10
383.9495446386
 20
-119.349660121
 10
386.227539416
 20
-120.5142985495
 10
388.4943826063
 20
-121.5225699777
 10
390.742680238
 20
-122.3711856337
 10
392.9650988317
 20
-123.0573775097
 10
395.1543893198
 20
-123.5789073905
 10
397.3034106918
 20
-123.9340741539
 10
399.4051532867
 20
-124.1217193198
 10
401.4527616569
 20
-124.1412308286
 10
403.4395569296
 20
-123.9925450379
 10
405.3590585916
 20
-123.6761469298
 10
407.2050056274
 20
-123.1930685292
 10
408.9713769414
 20
-122.5448855374
 10
410.6524109977
 20
-121.7337121927
 10
411.0563908261
 20
-121.5070756666
  0
LWPOLYLINE
  5
11B
330
1F
100
AcDbEntity
  8
0
  6
Continuous
 62
     1
370
    25
100
AcDbPolyline
 90
       15
 70
   128
 43
0.0
 10
354.5609824321
 20
-23.6435542176
 10
353.3747486458
 20
-24.3884355104
 10
351.8805424189
 20
-25.5171289143
 10
350.4872173699
 20
-26.7993163398
 10
349.1993182355
 20
-28.2308155582
 10
348.0210458751
 20
-29.8069573164
 10
346.9562435681
 20
-31.5226005677
 10
346.0083844784
 20
-33.3721492404
 10
345.1805603252
 20
-35.3495704911
 10
344.475471299
 20
-37.4484143828
 10
343.8954172535
 20
-39.6618349229
 10
343.4422902045
 20
-41.9826123937
 10
343.1175681583
 20
-44.4031769015
 10
342.9223102906
 20
-46.9156330678
 10
342.857153492
 20
-49.5117857831
  0
LWPOLYLINE
  5
11C
330
1F
100
AcDbEntity
  8
0
  6
Continuous
 62
     1
370
    25
100
AcDbPolyline
 90
       43
 70
   128
 43
0.0
 10
302.5520669644
 20
-119.3222432475
 10
304.8980092819
 20
-118.0431880127
 10
307.3666132202
 20
-116.8435332285
 10
309.9498267064
 20
-115.7271919195
 10
312.6392238351
 20
-114.697805359
 10
315.4260323518
 20
-113.758731192
 10
318.3011622663
 20
-112.9130324832
 10
321.2552355025
 20
-112.1634677261
 10
324.2786164875
 20
-111.5124818451
 10
327.361443581
 20
-110.9621982208
 10
330.4936612417
 20
-110.514411764
 10
333.6650528267
 20
-110.1705830611
 10
336.8652739157
 20
-109.9318336099
 10
340.0838860529
 20
-109.7989421614
 10
343.3103907943
 20
-109.7723421799
 10
346.5342639522
 20
-109.8521204291
 10
349.7449899224
 20
-110.0380166888
 10
352.9320959841
 20
-110.3294246041
 10
356.0851864599
 20
-110.7253936629
 10
359.1939766239
 20
-111.2246322965
 10
362.2483262488
 20
-111.8255120922
 10
365.238272681
 20
-112.5260731051
 10
368.1540633367
 20
-113.3240302507
 10
370.9861875129
 20
-114.2167807586
 10
373.7254074091
 20
-115.2014126624
 10
376.3627882593
 20
-116.2747142972
 10
378.8897274756
 20
-117.4331847764
 10
381.2979827072
 20
-118.67304541
 10
383.5796987263
 20
-119.9902520303
 10
385.7274330494
 20
-121.3805081831
 10
387.7341802137
 20
-122.8392791418
 10
389.5933946269
 20
-124.3618066987
 10
391.299011918
 20
-125.9431246855
 10
392.8454687181
 20
-127.5780751715
 10
394.2277208064
 20
-129.261325288
 10
395.4412595639
 20
-130.9873846231
 10
396.4821266795
 20
-132.75062313
 10
397.346927061
 20
-134.5452894912
 10
398.0328399092
 20
-136.3655298779
 10
398.537627919
 20
-138.2054070445
 10
398.8596445769
 20
-140.0589196939
 10
398.9978395315
 20
-141.9200220533
 10
399.0036001015
 20
-142.3857724065
  0
LWPOLYLINE
  5
11D
330
1F
100
AcDbEntity
  8
0
  6
Continuous
 62
     1
370
    25
100
AcDbPolyline
 90
       15
 70
   128
 43
0.0
 10
286.0036001015
 20
-142.3857724065
 10
286.0554381834
 20
-140.9889012195
 10
286.2856378667
 20
-139.1308359828
 10
286.6992088578
 20
-137.2833876721
 10
287.2948021741
 20
-135.4525822799
 10
288.0704751139
 20
-133.6443915128
 10
289.0236975934
 20
-131.8647133132
 10
290.1513603989
 20
-130.1193526216
 10
291.4497853288
 20
-128.4140024418
 10
292.9147371909
 20
-126.7542252715
 10
294.5414376166
 20
-125.1454349588
 10
296.3245806473
 20
-123.5928790435
 10
298.258350041
 20
-122.1016216403
 10
300.336438244
 20
-120.6765269207
 10
302.5520669644
 20
-119.3222432475
  0
ARC
  5
11E
330
1F
100
AcDbEntity
  8
0
  6
Continuous
 62
     1
370
    25
100
AcDbCircle
 10
342.6955913937
 20
-95.7321119152
 30
0.0
 40
72.35772588788065
100
AcDbArc
 50
8.9839203103
 51
51.010703157
  0
ARC
  5
11F
330
1F
100
AcDbEntity
  8
0
  6
Continuous
 62
     1
370
    25
100
AcDbCircle
 10
342.5036001015
 20
-96.0482127688
 30
0.0
 40
72.37364040784895
100
AcDbArc
 50
249.0022239299
 51
290.9977760701
  0
ENDSEC
  0
SECTION
  2
OBJECTS
  0
DICTIONARY
  5
C
330
0
100
AcDbDictionary
281
     1
  3
ACAD_GROUP
350
D
  3
ACAD_LAYOUT
350
1A
  3
ACAD_MLINESTYLE
350
17
  3
ACAD_PLOTSETTINGS
350
19
  3
ACAD_PLOTSTYLENAME
350
E
  3
ACAD_SCALELIST
350
47
  3
DWGPROPS
350
120
  0
DICTIONARY
  5
D
102
{ACAD_REACTORS
330
C
102
}
330
C
100
AcDbDictionary
281
     1
  0
DICTIONARY
  5
1A
102
{ACAD_REACTORS
330
C
102
}
330
C
100
AcDbDictionary
281
     1
  3
Layout1
350
1E
  3
Layout2
350
26
  3
Model
350
22
  0
DICTIONARY
  5
17
102
{ACAD_REACTORS
330
C
102
}
330
C
100
AcDbDictionary
281
     1
  3
Standard
350
18
  0
DICTIONARY
  5
19
102
{ACAD_REACTORS
330
C
102
}
330
C
100
AcDbDictionary
281
     1
  0
ACDBDICTIONARYWDFLT
  5
E
102
{ACAD_REACTORS
330
C
102
}
330
C
100
AcDbDictionary
281
     1
  3
Normal
350
F
100
AcDbDictionaryWithDefault
340
F
  0
DICTIONARY
  5
47
102
{ACAD_REACTORS
330
C
102
}
330
C
100
AcDbDictionary
281
     1
  3
A0
350
48
  3
A1
350
49
  3
A2
350
4A
  3
A3
350
4B
  3
A4
350
4C
  3
A5
350
4D
  3
A6
350
4E
  3
A7
350
4F
  3
A8
350
50
  3
A9
350
51
  3
B0
350
52
  3
B1
350
53
  3
B2
350
54
  3
B3
350
55
  3
B4
350
56
  3
B5
350
57
  3
B6
350
58
  3
B7
350
59
  3
B8
350
5A
  3
B9
350
5B
  3
C0
350
5C
  3
C1
350
5D
  3
C2
350
5E
  3
C3
350
5F
  3
C4
350
60
  3
C5
350
61
  3
C6
350
62
  3
C7
350
63
  3
C8
350
64
  3
C9
350
65
  3
D0
350
66
  3
D1
350
67
  3
D2
350
68
  0
XRECORD
  5
120
102
{ACAD_REACTORS
330
C
102
}
330
C
100
AcDbXrecord
280
     1
  1
DWGPROPS COOKIE
  2

  3

  4

  6

  7

  8
b.kav
  9

300
=
301
=
302
=
303
=
304
=
305
=
306
=
307
=
308
=
309
=
 40
0.0
 41
2459741.479565868
 42
2459741.479566053
  1

 90
        0
  0
LAYOUT
  5
1E
102
{ACAD_REACTORS
330
1A
102
}
330
1A
100
AcDbPlotSettings
  1

  2
none_device
  4

  6

 40
0.0
 41
0.0
 42
0.0
 43
0.0
 44
0.0
 45
0.0
 46
0.0
 47
0.0
 48
0.0
 49
0.0
140
0.0
141
0.0
142
1.0
143
1.0
 70
   688
 72
     1
 73
     0
 74
     5
  7

 75
    16
147
1.0
148
0.0
149
0.0
100
AcDbLayout
  1
Layout1
 70
     1
 71
     1
 10
0.0
 20
0.0
 11
420.0
 21
297.0
 12
0.0
 22
0.0
 32
0.0
 14
1.0000000000E+20
 24
1.0000000000E+20
 34
1.0000000000E+20
 15
-1.0000000000E+20
 25
-1.0000000000E+20
 35
-1.0000000000E+20
146
0.0
 13
0.0
 23
0.0
 33
0.0
 16
1.0
 26
0.0
 36
0.0
 17
0.0
 27
1.0
 37
0.0
 76
     0
330
1B
  0
LAYOUT
  5
26
102
{ACAD_REACTORS
330
1A
102
}
330
1A
100
AcDbPlotSettings
  1

  2
none_device
  4

  6

 40
0.0
 41
0.0
 42
0.0
 43
0.0
 44
0.0
 45
0.0
 46
0.0
 47
0.0
 48
0.0
 49
0.0
140
0.0
141
0.0
142
1.0
143
1.0
 70
   688
 72
     1
 73
     0
 74
     5
  7

 75
    16
147
1.0
148
0.0
149
0.0
100
AcDbLayout
  1
Layout2
 70
     1
 71
     2
 10
0.0
 20
0.0
 11
0.0
 21
0.0
 12
0.0
 22
0.0
 32
0.0
 14
0.0
 24
0.0
 34
0.0
 15
0.0
 25
0.0
 35
0.0
146
0.0
 13
0.0
 23
0.0
 33
0.0
 16
1.0
 26
0.0
 36
0.0
 17
0.0
 27
1.0
 37
0.0
 76
     0
330
23
  0
LAYOUT
  5
22
102
{ACAD_REACTORS
330
1A
102
}
330
1A
100
AcDbPlotSettings
  1

  2
none_device
  4
Letter_(8.50_x_11.00_Inches)
  6

 40
6.35
 41
6.35
 42
6.35000508
 43
6.35000508
 44
215.9
 45
279.4
 46
0.0
 47
0.0
 48
0.0
 49
0.0
140
0.0
141
0.0
142
1.0
143
1.0
 70
  1712
 72
     1
 73
     0
 74
     0
  7

 75
     0
147
1.0
148
0.0
149
0.0
100
AcDbLayout
  1
Model
 70
     1
 71
     0
 10
0.0
 20
0.0
 11
279.4
 21
215.9
 12
0.0
 22
0.0
 32
0.0
 14
0.0
 24
0.0
 34
0.0
 15
279.4
 25
215.9
 35
0.0
146
0.0
 13
0.0
 23
0.0
 33
0.0
 16
1.0
 26
0.0
 36
0.0
 17
0.0
 27
1.0
 37
0.0
 76
     0
330
1F
331
29
  0
MLINESTYLE
  5
18
102
{ACAD_REACTORS
330
17
102
}
330
17
100
AcDbMlineStyle
  2
Standard
 70
     0
  3

 62
   256
 51
90.0
 52
90.0
 71
     2
 49
0.5
 62
   256
  6
BYLAYER
 49
-0.5
 62
   256
  6
BYLAYER
  0
ACDBPLACEHOLDER
  5
F
102
{ACAD_REACTORS
330
E
102
}
330
E
  0
SCALE
  5
48
102
{ACAD_REACTORS
330
47
102
}
330
47
100
AcDbScale
 70
     0
300
1:1
140
1.0
141
1.0
290
     1
  0
SCALE
  5
49
102
{ACAD_REACTORS
330
47
102
}
330
47
100
AcDbScale
 70
     0
300
1:2
140
1.0
141
2.0
290
     0
  0
SCALE
  5
4A
102
{ACAD_REACTORS
330
47
102
}
330
47
100
AcDbScale
 70
     0
300
1:4
140
1.0
141
4.0
290
     0
  0
SCALE
  5
4B
102
{ACAD_REACTORS
330
47
102
}
330
47
100
AcDbScale
 70
     0
300
1:5
140
1.0
141
5.0
290
     0
  0
SCALE
  5
4C
102
{ACAD_REACTORS
330
47
102
}
330
47
100
AcDbScale
 70
     0
300
1:8
140
1.0
141
8.0
290
     0
  0
SCALE
  5
4D
102
{ACAD_REACTORS
330
47
102
}
330
47
100
AcDbScale
 70
     0
300
1:10
140
1.0
141
10.0
290
     0
  0
SCALE
  5
4E
102
{ACAD_REACTORS
330
47
102
}
330
47
100
AcDbScale
 70
     0
300
1:16
140
1.0
141
16.0
290
     0
  0
SCALE
  5
4F
102
{ACAD_REACTORS
330
47
102
}
330
47
100
AcDbScale
 70
     0
300
1:20
140
1.0
141
20.0
290
     0
  0
SCALE
  5
50
102
{ACAD_REACTORS
330
47
102
}
330
47
100
AcDbScale
 70
     0
300
1:30
140
1.0
141
30.0
290
     0
  0
SCALE
  5
51
102
{ACAD_REACTORS
330
47
102
}
330
47
100
AcDbScale
 70
     0
300
1:40
140
1.0
141
40.0
290
     0
  0
SCALE
  5
52
102
{ACAD_REACTORS
330
47
102
}
330
47
100
AcDbScale
 70
     0
300
1:50
140
1.0
141
50.0
290
     0
  0
SCALE
  5
53
102
{ACAD_REACTORS
330
47
102
}
330
47
100
AcDbScale
 70
     0
300
1:100
140
1.0
141
100.0
290
     0
  0
SCALE
  5
54
102
{ACAD_REACTORS
330
47
102
}
330
47
100
AcDbScale
 70
     0
300
2:1
140
2.0
141
1.0
290
     0
  0
SCALE
  5
55
102
{ACAD_REACTORS
330
47
102
}
330
47
100
AcDbScale
 70
     0
300
4:1
140
4.0
141
1.0
290
     0
  0
SCALE
  5
56
102
{ACAD_REACTORS
330
47
102
}
330
47
100
AcDbScale
 70
     0
300
8:1
140
8.0
141
1.0
290
     0
  0
SCALE
  5
57
102
{ACAD_REACTORS
330
47
102
}
330
47
100
AcDbScale
 70
     0
300
10:1
140
10.0
141
1.0
290
     0
  0
SCALE
  5
58
102
{ACAD_REACTORS
330
47
102
}
330
47
100
AcDbScale
 70
     0
300
100:1
140
100.0
141
1.0
290
     0
  0
SCALE
  5
59
102
{ACAD_REACTORS
330
47
102
}
330
47
100
AcDbScale
 70
     0
300
1/128" = 1'-0"
140
0.0078125
141
12.0
290
     0
  0
SCALE
  5
5A
102
{ACAD_REACTORS
330
47
102
}
330
47
100
AcDbScale
 70
     0
300
1/64" = 1'-0"
140
0.015625
141
12.0
290
     0
  0
SCALE
  5
5B
102
{ACAD_REACTORS
330
47
102
}
330
47
100
AcDbScale
 70
     0
300
1/32" = 1'-0"
140
0.03125
141
12.0
290
     0
  0
SCALE
  5
5C
102
{ACAD_REACTORS
330
47
102
}
330
47
100
AcDbScale
 70
     0
300
1/16" = 1'-0"
140
0.0625
141
12.0
290
     0
  0
SCALE
  5
5D
102
{ACAD_REACTORS
330
47
102
}
330
47
100
AcDbScale
 70
     0
300
3/32" = 1'-0"
140
0.09375
141
12.0
290
     0
  0
SCALE
  5
5E
102
{ACAD_REACTORS
330
47
102
}
330
47
100
AcDbScale
 70
     0
300
1/8" = 1'-0"
140
0.125
141
12.0
290
     0
  0
SCALE
  5
5F
102
{ACAD_REACTORS
330
47
102
}
330
47
100
AcDbScale
 70
     0
300
3/16" = 1'-0"
140
0.1875
141
12.0
290
     0
  0
SCALE
  5
60
102
{ACAD_REACTORS
330
47
102
}
330
47
100
AcDbScale
 70
     0
300
1/4" = 1'-0"
140
0.25
141
12.0
290
     0
  0
SCALE
  5
61
102
{ACAD_REACTORS
330
47
102
}
330
47
100
AcDbScale
 70
     0
300
3/8" = 1'-0"
140
0.375
141
12.0
290
     0
  0
SCALE
  5
62
102
{ACAD_REACTORS
330
47
102
}
330
47
100
AcDbScale
 70
     0
300
1/2" = 1'-0"
140
0.5
141
12.0
290
     0
  0
SCALE
  5
63
102
{ACAD_REACTORS
330
47
102
}
330
47
100
AcDbScale
 70
     0
300
3/4" = 1'-0"
140
0.75
141
12.0
290
     0
  0
SCALE
  5
64
102
{ACAD_REACTORS
330
47
102
}
330
47
100
AcDbScale
 70
     0
300
1" = 1'-0"
140
1.0
141
12.0
290
     0
  0
SCALE
  5
65
102
{ACAD_REACTORS
330
47
102
}
330
47
100
AcDbScale
 70
     0
300
1-1/2" = 1'-0"
140
1.5
141
12.0
290
     0
  0
SCALE
  5
66
102
{ACAD_REACTORS
330
47
102
}
330
47
100
AcDbScale
 70
     0
300
3" = 1'-0"
140
3.0
141
12.0
290
     0
  0
SCALE
  5
67
102
{ACAD_REACTORS
330
47
102
}
330
47
100
AcDbScale
 70
     0
300
6" = 1'-0"
140
6.0
141
12.0
290
     0
  0
SCALE
  5
68
102
{ACAD_REACTORS
330
47
102
}
330
47
100
AcDbScale
 70
     0
300
1'-0" = 1'-0"
140
12.0
141
12.0
290
     0
  0
ENDSEC
  0
EOF
